Tiamat logo

A Caress Of Stars Tiamat

  • 0
  • Share
  • Font Size
Tiamat – A Caress Of Stars
Riff 1
(pierwsza gitara)
Es----------------------------------------------------------|
B-----------------------------------------------------------|
Fis---------------------------------------------------------|
Cis------------------7---8---7-----------------3---3--------|
As---5-----7/8---7-8-5---6---5-------|-5---------------3---1---1---3----|
Es---3-----5/6---5-6-----------------|-3---------------1-----------1----|
(druga gitara)
Es----------------------------------------------------------|
B-----------------------------------------------------------|
Fis------------------7---------------------7----------------|
Cis--5-----------7/8-----------------|-5-----------7/8-----8---8--------|
As-----------------------------------------------------8----|
Es----------------------------------------------------------|

Riff 2 (tego nie jestem pewien - pierwsza gitara)
Es----------------------------------------------------------|
B-----------------------------------------------------------|
Fis---------------------------------------------------------|
Cis----------7-------5---8---8-------|---------7-------5---4---4--------|
As---5-------5-------3---6---6---7---|-5-------5-------3---2---2---6----|
Es---3---------------------------5---|-3---------------------------4----|
(druga gitara, to juz da sie zjesc)
Es----------------------------------------------------------|
B------------8-------6---------------|---------8-------6----------------|
Fis--------------------------8---7-------------8---7--------|
Cis--5-------------------------------|-5---------------------------8----|
As----------------------------------------------------------|
Es----------------------------------------------------------|

Riff 3 (4x)
Es------------------------------------------------1---------|
B---------------------------------------------------0-------|
Fis---------3------2-----2-----2----------0-----------0-----|
Cis-------5----5-----5-----5------------3---3---------------|
As------5--------5-----5-----5--------3---------------------|
Es---3---------------------------3-1-----------1------------|
I was your fear and you were my fate
I wanted you near but I bred your hate
You left me for dead, deep down in the mud
With scars of my head, in my heart and my blood

Riff 4 (2x)
Es--------------5---------------0---------------1--------------------|
B-------------6---6-----------6---6-----------2---2------2----2-/-4--|
Fis---------7-------7-------7-------7-------3-------3------3--3-/-5--|
Cis-------7-----------7---7-----------7---3-----------3--------------|
As------5---------------3---------------1----------------------------|
Es-------------------------------------------------------------------|
On my head, in my heart and my blood
On my head, in my heart and my blood

Riff 3 (2x)

Riff 5
Es-------------------------------------------------------------|
B--------------------------------------------------------------|
Fis-------------------------------7--------------5------4------|
Cis--7-------------3------2-------5--------------3------2------|
As---5-------------1------0------------------------------------|
Es-------------------------------------------------------------|
" A caress of stars silhouette in twilight sky

Es-------------------------------------------------------------|
B--------------------------------------------------------------|
Fis-------------------------------7----------------------------|
Cis--7-------------3------2-------5--------------5------9------|
As---5-------------1------0----------------------3------6------|
Es-------------------------------------------------------------|
The day- on silver seas My name echo- crimson hills
-break sets -es through

Riff 1 (2x - slowa odpowiednio do niego)
On the horizon, where seas meet clouds
A scenery shimmers beyond reality
I glance a world as a recent lit star
I am swallowed by universe"

Riff 2 (2x)

Riff 3 (4x - ponizsze slowa odpowiednio)
A vacant eye caught the last moonlight
A wish to die to be shining bright
As a star to light your way
To where we are not led astray

Riff 4 (2x z ponizszymi slowami)
Where we are not led astray
Where we are not led astray

Riff 5
" A caress of stars
A silhouette in the twilight sky
The daybreak sets on silver seas
My name echoes through crimson hills

Riff 1 (2x)
On the horizon, where seas meet clouds
A scenery shimmers beyond reality
I glance a world as a recent lit star
I am swallowed by universe"

Riff 2 (2x)

Riff 6: (2x)
Es-------------------------------------------------------------------|
B--------------------------------------------------------------------|
Fis--------------------------87-------------------------------------|
Cis--7---7-7-7---7-7-5/6-8/10--------8---8-8-8---8-8-10--10105---5-5-|
As---5---5-5-5---5-5-----------------6---6-6-6---6-6-8---8-8-3---3-3-|
Es-------------------------------------------------------------------|
^ ^ ^ ^ ^ ^ ^ ^ ^ ^ ^ ^
Deep in death Wrapped in the deauty Comes close my love
morning
My dearest sister and friend

Riff 7: (jedna gitara gra Riff 6, a druga to)
Es-------------------------------------------------------------------|
B----43-1h3-43-1h3-43-1h3-43-1h3-64-3h4-64-3h4-43-1h3---------|
Fis----------------------------------------------------------53-2h3-|
Cis------------------------------------------------------------------|
As-------------------------------------------------------------------|
Es-------------------------------------------------------------------|

Listen this song, it´s really zaebyiste!!!

Log In to leave a comment

After registration we will return you to the same place
Comments
face-with-monocle
If you wait a bit, some comments may appear here...

Shhh...

Most Popular
You Might Like