Thursday logo

War All The Time Thursday

  • 0
  • Share
  • Font Size
Thursday – War All The Time
THURSDAY - WAR ALL THE TIME

STANDARD TUNING FOR BOTH GUITARS

This would be ridiculously long if I tabbed every single verse, but since the same
Thing is played over and over again, I simplified the tab. I hope it's understandable,
It can seem quite complicated, but its an easy song to play.

___________________________________________________________________________
Guitar 1 main riff (after 7 times play -1-A at the end)
-1-E
(play 7 times again and -3-D at the end)
-3-A
-1-E
(play 6x again and -1-A at the end)
-1-E
(then play it 5x again with -1-A at end)
-1-E
E|-----------------------------------------------------------------------|
B|-----------------------------------------------------------------------|
G|-----------------------------------------------------------------------|
D|-----------------------------------------------------------------------|
A|--1111111133330000555555557777888-------------------------------------|
E|--1111111133330000555555557777888-------------------------------------|

___________________________________________________________________________

Guitar 2 (during 3rd and 4th time of guitar 1)
E|--12------10------5-------3--------------------------------------------|
B|--12------10------5-------3--------------------------------------------|
G|-----------------------------------------------------------------------|
D|-----------------------------------------------------------------------|
A|-----------------------------------------------------------------------|
E|-----------------------------------------------------------------------|

Guitar 2 (during 5th, 6th and 7th time of guitar 1)
E|--3-------1-------0----------------------------------------------------|
B|--------------------------1---0-1-0-1----------------------------------|
G|-----------------------------------------------------------------------|
D|-----------------------------------------------------------------------|
A|-----------------------------------------------------------------------|
E|-----------------------------------------------------------------------|

Guitar 2 (during 8th, 9th and 10th time of guitar 1)
E|----3-0-----------------------3-0--------------------------------------|
B|-------3-3-1-0-0-1-0-0-1-0-------3-3-1-0-0-1-0-0-1-0-------------------|
G|--2-----------2-----2------2-2----------2-----2-----2------------------|
D|-----------------------------------------------------------------------|
A|-----------------------------------------------------------------------|
E|-----------------------------------------------------------------------|

Guitar 2 (during 11th, 12th, 13th, and 14th time of guitar 1)
E|-----------------------------------------------------------------------|
B|--13-13-13-12-12-12-10-10-10-------------------------------------------|
G|-----------------------------12-12-12-10-10-9-9------------------------|
D|-----------------------------------------------------------------------|
A|-----------------------------------------------------------------------|
E|-----------------------------------------------------------------------|

Guitar 2 (during 15th and 16th time of guitar 1)
E|----------------------------------15-15-13-13-13-----------------------|
B|-----------------------------------------------------------------------|
G|-17-17-17-17-17-17-17-17-17-14-14--------------------------------------|
D|-----------------------------------------------------------------------|
A|-----------------------------------------------------------------------|
E|-----------------------------------------------------------------------|

Guitar 2 (during 17th, 18th, 19th and 20th times of guitar 1)
E|--15-----13-----12-----------------------------------------------------|
B|-----------------------13-----12-13-12---------------------------------|
G|---------------------------------------14------------------------------|
D|-----------------------------------------------------------------------|
A|-----------------------------------------------------------------------|
E|-----------------------------------------------------------------------|

Guitar 2 (during 21st-25th time for guitar 1)
E|-12-12--------(4x)---15-15-------(4x)----------------------------------|
B|-------15-15--(4x)---------13-13-(4x)----------------------------------|
G|-----------------------------------------------------------------------|
D|-----------------------------------------------------------------------|
A|-----------------------------------------------------------------------|
E|-----------------------------------------------------------------------|

Guitar 1 (SOLO? 2x)
E|-----------------------------------------------------------------------|
B|-----------------------------------------------------------------------|
G|-----------------------------------------------------------------------|
D|-----------------------------------------------------------------------|
A|-1-1-1-1----------1-1-1-1----------5-5-5-5----------5-5-5-5------------|
E|-1-1-1-1----------1-1-1-1----------5-5-5-5----------5-5-5-5------------|

Guitar 2 (played with guitar one solo)
E|-----------17--17-----------17--17-----------15--15-----------15--15---|
B|---------17--17-----------17--17-----------15--15-----------15--15-----|
G|-----------------------------------------------------------------------|
D|-----------------------------------------------------------------------|
A|-----------------------------------------------------------------------|
E|-----------------------------------------------------------------------|

guitar 1 (outro) 4x
E|-----------------------------------------------------------------------|
B|-----------------------------------------------------------------------|
G|-----------------------------------------------------------------------|
D|-----------------------------------------------------------------------|
A|--11111111333333335555555555555555-------------------------------------|
E|--11111111333333335555555555555555-------------------------------------|

guitar 2 (outro - played with guitar 1)
E|-12-12--------(4x)---15-15-------(4x)----------------------------------|
B|-------15-15--(4x)---------13-13-(4x)----------------------------------|
G|-----------------------------------------------------------------------|
D|-----------------------------------------------------------------------|
A|-----------------------------------------------------------------------|
E|-----------------------------------------------------------------------|

guitar 1, last chord
E|-------
B|-------
G|-------
D|-------
A|--1----
E|--1----

guitar 2, last chord
E|-12-----
B|---13---
G|-----14-
D|--------
A|--------
E|--------

Log In to leave a comment

After registration we will return you to the same place
Comments
face-with-monocle
If you wait a bit, some comments may appear here...

Shhh...