Thrice logo

Deadbolt Thrice

  • 0
  • Share
  • Transposing
    0
  • Font Size
Thrice – Deadbolt
Intro 2x
G ---------------------|
D ---------------------|
A ---------------------|
E -9>>>---5>>--7>>-----|

Verse (When devils awake...) x2
G|-------------------------------------------------------------------|
D|--------2h3p2----------2h3p2----------2h3p2----------2h3p2---------|
A|---------------3h0------------3h0------------3h0------------3h0----|
E|--5>>>--------------00-------------00-------------00-------------00|

Then
G|----------|
D|----------|
A|-1>>------|
E|-----5>-7>|

G|-----------------------------------------------------------------|
D|-0-0-2-0-3-0-0-5-0-3-0-0-2-3-2-0-0-0-2-0-3-0-0-5-0-3-0-0-2-3-2-0-|
A|-----------------------------------------------------------------|
E|-----------------------------------------------------------------|

G|-----------|
D|-----------|
A|--1>>------|
E|------5>-7>|

Chorus (I just close my eyes...) x2
G|------------------------------------------|
D|------------------------------------------|
A|-------3-3--------------------------------|
E|--0-0-------3-3--8-8-----5-5--5-5---------|

Bridge (And I'm almost sure...)
G ----------------------------|
D ----------------------- ----|
A ----------------------------|
E -9>>--7>>--5>>--2>>---------|

Interlude x4
G|-------------------------------------------------------|
D|-------------------------------------------------------|
A|-----------------5-5-5---------------------------------|
E|--0-0-0-0-0-0-0--------3-3-3-3-3-3--8>--5-5-5-5-5-5----|

Slow Part: x3 x1
G|------------------------|-----------------------------------------------|
D|------------------------|-----------------------------------------------|
A|-2~---------------------|-2~--------------------------------------------|
E|---------0~-------5~----|--------0~-------2~----1-1-1-1-1-1-1-1-1-1-1-1-|

Log In to leave a comment

After registration we will return you to the same place
Comments
face-with-monocle
If you wait a bit, some comments may appear here...

Shhh...