Third Eye Blind logo

Never Let You Go Third Eye Blind

  • 1
  • Share
  • Font Size
Third Eye Blind – Never Let You Go
Song: never let you Go
Band: Third Eye Blind

Standard Tuning

^=bend, ~=vibrato, x=muted scratch, =slide

Intro, Main riff

Guitar 1 (guitar 1 and 2 are played at the same time)
E|---------------------------------------------------------|
B|---------------------------------------------------------|
G|--9------------9-------------9------------9--------------|
D|--9--9--7-7----9--9--7-7-7-x-9--9--7-7----9--9--7-7-7----|
A|--7--9--7-7----7--9--7-7-7-x-7--9--7-7----7--9--7-7-7----|
E|-----7--5-5-------7--5-5-5-x----7--5-5-------7--5-5-5----|

Guitar 2
E|---------------------------------------------------------|
B|---------------------------------------------------------|
G|---------------------------11^13^11p9----11^13^11p9------|
D|------------------------------------11~~----------11~-9--|
A|---------------------------------------------------------|
E|---------------------------------------------------------|

Chorus, Guitar 1
E|---------------------------------------------------------------------------|
B|----------10-10-9-9-7---------------10-10---------------------10-10-97-7--|
G|--9-------9--9--9-9-6--x--9--11-----9--9--9-9----x--9---------9--9--96-6--|
D|--9--9-9--7--7--7-7-4--x--9--11-9-9-7--7--9-9-9--x--9--9-9-9--7--7--74-4--|
A|--7--9-9---------------x--7--9--9-9-------7-7-9--x--7--9-9-9---------------|
E|-----7-7---------------x--------7-7-----------7--x-----7-7-7---------------|

Log In to leave a comment

After registration we will return you to the same place
Comments
face-with-monocle
If you wait a bit, some comments may appear here...

Shhh...