Loading...
Third Day logo

Sing Praises Third Day

  • 0
  • Share
  • Transposing
    0
  • Font Size
Third Day: Sing Praises.
Progression tabbed by none other then 3p!k.

Note theds that you see here are the base notes,
I Am not a finger picker so i gave the basics, but i
No the finger patterns, they are listed at thetom. and i
No musician, so i just named the chords the sake ofumentation.

Edim/G# Edim/A Edim/G#
Sing praises to our God, sing praises
Edim/G# Edim/F# Eadim
Sing praises to our King, sing praises
A
Let all the nations sing
A
Let all the nations sing of His love
B A E
Oh----O----OH, sing praises
E
So shout joy all of His children
E
So shout joy all of His children
A
Let all the people sing
A
Let all the people sing of His love
B A E
Oh----O----OH, sing praises
A E
For You are God and You are worthy
C---A/ E
Of all our lives /and all our praise
A C
And so we sing to the Most Holy
A
The Lord, our God
A
The Lord, our King
E
Sing praises to our God, sing praises
E
Sing praises to our King, sing praises
A
For He alone is God
A
For He alone is worthy of praise
B A E
Oh----O----OH, sing praises

-------------x----------
-------------9----------
-------------X----------
-------------9----------
------7-----------------
------------------------

-------------x----------
--------------10--------
-------------X----------
-------------9----------
------7-----------------
------------------------

-------------x----------
------7-----------------
-------------X----------
-------------9----------
------7-----------------
------------------------

------------------------

-------------X----------
-------------9----------
------7-----------------
------------------------

Enjoy, add to it, make it better, cause i just strum the whole thing.

Log In to leave a comment

After registration we will return you to the same place
Comments
face-with-monocle
If you wait a bit, some comments may appear here...

Shhh...