Loading...
Third Day logo

Ive Always Loved You Third Day

  • 0
  • Share
  • Transposing
    0
  • Font Size
Song: I've Always Loved You
Artist: Third Day
Tabbed by: Will Bowen
Date: August 29, 2000

Capo on 4th

Intro and Verse:

E-------0-0-0-0-0-----0-0-0-0-0-----0-0-0-0-0-----0-0-0-0-0--------------|
B-------1-1-1-1-1-----1-1-1-1-1-----1-1-1-1-1-----1-1-1-1-1--------------|
G-------0-0-0-0-0-----0-0-0-0-0-----0-0-0-0-0-----0-0-0-0-0--------------|
D-------2-2-2-2-2-----2-2-2-2-2----3--3-3-3-3----2--2-2-2-2--------3---2-|
A------3--3-3-3-3----2--2-2-2-2------------------------------------------|
E------------------------------------------------------------------------|

E-3-3-3-3-3-3-3--#I
B-0-1-0-1-0-1-0--#I
G-0-0-0-0-0-0-0--#I
D-0-0-0-0-0-0-0--#I
A-2-0-2-0-2-0-2--#I
E-3-3-3-3-3-3-3--#I

Chorus:

E-------0-0-0-0-0-----0-0-0-0-0-----0-0-0-0-0-0-0-0-0-0------0-0-0-0-0---|
B-------1-1-1-1-1-----1-1-1-1-1-----1-1-1-1-1-1-1-1-1-1------1-1-1-1-1---|
G-------0-0-0-0-0-----0-0-0-0-0-----0-0-0-0-0-0-0-0-0-0------0-0-0-0-0---|
D-------2-2-2-2-2----3--3-3-3-3-----2-2-2-2-2-2-2-2-2-2------2-2-2-2-2---|
A------0--0-0-0-0------------------3--3-3-3-3-3-3-3-3-3-----0--0-0-0-0---|
E------------------------------------------------------------------------|

E--0-0-0-0-0-----0-0-0-0-0-0-0-0-0-0-----0-0-0-0-0-----0-0-0-0-0------------0-|
B--1-1-1-1-1-----1-1-1-1-1-1-1-1-1-1-----1-1-1-1-1-----1-1-1-1-1------------1-|
G--0-0-0-0-0-----0-0-0-0-0-0-0-0-0-0-----0-0-0-0-0-----0-0-0-0-0------------0-|
D-3--3-3-3-3-----2-2-2-2-2-2-2-2-2-2-----2-2-2-2-2----3--3-3-3-3------------2-|
A---------------3--3-3-3-3-3-3-3-3-3----0--0-0-0-0----------------3---2---0---|
E-----------------------------------------------------------------------------|

E-0-0-0-0-0-0-0-0-0----------3-3-3-3-3-3-3--#I
B-1-1-1-1-1-1-1-1-1----------0-1-0-1-0-1-0--#I
G-0-0-0-0-0-0-0-0-0----------0-0-0-0-0-0-0--#I
D-2-2-2-2-2-2-2-2-2----3--2--0-0-0-0-0-0-0--#I
A-0-0-0-0-0-0-0-0-0----------2-0-2-0-2-0-2--#I
E----------------------------3-3-3-3-3-3-3--#I
Email me if there is a problem

Log In to leave a comment

After registration we will return you to the same place
Comments
face-with-monocle
If you wait a bit, some comments may appear here...

Shhh...