Thin Lizzy logo

Baby Face Thin Lizzy

  • 0
  • Share
  • Font Size
Thin Lizzy – Baby Face
  Baby Face
By Thin Lizzy

X 3
E-----------------------------------------------------------------------|
B-----------------------------------------------------------------------|
G-----------------------------------------------------------------------|
D------------3--2-----0-------------------------------------------------|
A------0--3--------3--------0--5--5--5--5--3----------------------------|
E---3--------------------3----------------------------------------------|

E-------------------------------------------------|
B-------------------------------------------------|
G-------------------------------------------------|
D-------------------------------------------------|
A-------------------------------------------------|
E-----5--3--0--3----------------------------------|

[email protected]
Www.corvettepower.org

================================================
== TABLATURE EXPLANATION ==
================================================

---------- ---------- ----t---|
----5h8--- Hammeron ----(8)--- Ghost ----6---| Tap
---------- ---------- Note --------|
----5p8--- Pulloff ---------- --------|

---------- ---------- -----p--|
----5/8--- Slide Up -----x---- Dead -----7--| Pop
---------- ---------- Note --s-----|
----58--- Slide Down ---------- --5-----| Slap

---------- ||------|| Repeat --------|
----5~~~-- Vibrato ||*----*|| ---5^---| Bend
---------- ||*----*|| --------|
---------- ||------|| --------|

---------- ---------- --------|
-4:------- Time ---------- --------|
-4:------- Signature ---------- --------|
---------- ---------- --------|

================================================
== Created with BUCKET O' TAB for Windows ==
== For more info email [email protected] ==
================================================

Log In to leave a comment

After registration we will return you to the same place
Comments
face-with-monocle
If you wait a bit, some comments may appear here...

Shhh...