Therion logo

Baal Reginon Therion

  • 0
  • Share
  • Transposing
    0
  • Font Size
Therion – Baal Reginon

THERION-BAAL REGINON
From the Album SYMPHONY MASSES: HO DRAKON HO MEGAS
Copyright 1993 Pavement Music

Version 1.0 - March 1999

Transcribed by: Zack Demianczyk(MTD)
email Zack at [email protected], for questions or corrections

Visit my homepage Malignant Tablature Dominion at:

Check Out 's Web Page, With More Transcriptions On It:
/

Check Out DEATH WARP, With More Transcriptions On It:

/ slide up
slide down
P pull on
B hammer on
~ vibrato
Pm .

Tuning: 2 Steps Down to C

play 2 times ......
|------------------------------|
|------------------------------|
|------------------------------|
|-5-----4-----3----0h2---------|
|------------------------------|
|-----------------------000000-|

play 2 times
........ ........ ........ ........
|-----------------------------------------------------|
|-----------------------------------------------------|
|-----------------------------------------------------|
|-5p2----------4p1----------2h5----------0h2----------|
|-----------------------------------------------------|
|-----00000000-----00000000-----00000000-----00000000-|

.
|-----|
|-----|
|-----|
|--2--|
|--2--|
|--0--|

play 1 time
. . . . . .
|-------------------------------------------------|
|-------------------------------------------------|
|-------------------------------------------------|
|-----3-2h3p2h3p2-----3-2h3p2h3p2-----3-2-0-2-3-2-|
|-2-2-------------2-2-------------2-2-------------|
|-0-0-------------0-0-------------0-0-------------|

play 1 time
. . . . . .
|-------------------------------------------------|
|-------------------------------------------------|
|-----5-4h5p4h5p4-----5-4h5p4h5p4-----5-4-2-4-5-4-|
|-------------------------------------------------|
|-2-2-------------2-2-------------2-2-------------|
|-0-0-------------0-0-------------0-0-------------|

play 1 time
. . . . . .
|-------------------------------------------------|
|-----6-5h6p5h6p5-----6-5h6p5h6p5-----6-5-3-5-6-5-|
|-------------------------------------------------|
|-------------------------------------------------|
|-2-2-------------2-2-------------2-2-------------|
|-0-0-------------0-0-------------0-0-------------|

play 1 time
. . . . . .
|-----8-7h8p7h8p7-----8-7h8p7h8p7-----8-7-5-7-8-7-|
|-------------------------------------------------|
|-------------------------------------------------|
|-------------------------------------------------|
|-2-2-------------2-2-------------2-2-------------|
|-0-0-------------0-0-------------0-0-------------|

play 1 time
|-----------------|
|-----------------|
|-----------------|
|-----------------|
|-8-7-5-4-5-7-5-4-|
|-6-5-3-2-3-5-3-2-|

play 18 times
|-------------------|
|-------------------|
|----------10--7--9-|
|----9--7-----------|
|-7-----------------|
|-------------------|

play 1 time
|-------------|
|-------------|
|-------------|
|-------------|
|-7-5-7-8-5-7-|
|-5-3-5-6-3-5-|

play 1 time guitar 2
|---------------------------------------------------------------------|
|---------------------------------------------------------------------|
|---------------------------------------------------------------------|
|-~7------------7-5-7-8-5-7---7-5-7-8-5-7---7-5-7-8-5-7---7-5-7-8-5-7-|
|---------------------------------------------------------------------|
|---------------------------------------------------------------------|
| guitar 1 |
|---------------------------------------------------------------------|
|---------------------------------------------------------------------|
|---------------------------------------------------------------------|
|---------------------------------------------------------------------|
|-7-5-7-8-5-7---7-5-7-8-5-7---7-5-7-8-5-7---7-5-7-8-5-7---7-5-7-8-5-7-|
|-5-3-5-6-3-5---5-3-5-6-3-5---5-3-5-6-3-5---5-3-5-6-3-5---5-3-5-6-3-5-|

play 12 times
|-------------|
|-------------|
|-------------|
|-------------|
|-7-5-7-8-5-7-|
|-5-3-5-6-3-5-|

play 4 times
|--------------------|
|--------------------|
|--------------------|
|--------------------|
|-7-5-7-8-/10-8-/10-|
|-5-3-5-6-/-8-6-/-8-|

ending
|-----|
|-----|
|-----|
|--7--|
|--7--|
|--5--|

This tab is not permitted or any others off my page to by posted anywhere without
Asking me in head of time. For all the time it takes me to do some of these tabs
Please ask me first, I would appreciate it, Zack Demianczyk ([email protected])

Log In to leave a comment

After registration we will return you to the same place
Comments
face-with-monocle
If you wait a bit, some comments may appear here...

Shhh...