Therapy logo

A Moment Of Clarity Therapy

  • 0
  • Share
  • Transposing
    0
  • Font Size
Therapy – A Moment Of Clarity
From [email protected] Wed Apr  9 12:46:03 1997
Date: Thu, 9 Apr 1998 01:19:55 +0100 (BST)
From: Alex Kruczkowski
To: [email protected]
Subject: A Moment Of Clarity by Therapy?

A Moment Of Clarity by Therapy?

This is on the Infernal Love album.

------------------------------------------------------------------------------

I haven't put in all the strumming yet, neither have I tabbed out the
Chorus riff properly yet. Check the archive for an update sometime.

Em
E|0-------------------------------|0-------------------------------|
B|0-------------------------------|0-------------------------------|
G|0-------------------------------|0-------------------------------|
D|2-------------------------------|2-------------------------------|
A|2-------------------------------|2-------------------------------|
E|0-------------------------------|0-------------------------------|

Em D
E|0-------------------------------|0-----------------------2-------|
B|0-------------------------------|0-----------------------3-------|
G|0-------------------------------|0-----------------------2-------|
D|2-------------------------------|2-----------------------0-------|
A|2-------------------------------|2-------------------------------|
E|0-------------------------------|0-------------------------------|
I thought of you tonight in simple twists and turns

C D
E|0-------------------------------|0-0---------------------2-------|
B|1-------------------------------|1-1---------------------3-------|
G|0-------------------------------|0-0---------------------2-------|
D|2-------------------------------|2-2---------------------0-------|
A|3-------------------------------|3-3-----------------------------|
E|--------------------------------|--------------------------------|
Incarcerated here I'm handcuffed to your world

Em D
E|0-------0-------0-------0-0-0---|0-------0-------0-------2-2-22--|
B|0-------0-------0-------0-0-0---|0-------0-------0-------3-3-33--|
G|0-------0-------0-------0-0-0---|0-------0-------0-------2-2-22--|
D|2-------2-------2-------2-2-2---|2-------2-------2-------0-0-00--|
A|2-------2-------2-------2-2-2---|2-------2-------2---------------|
E|0-------0-------0-------0-0-0---|0-------0-------0---------------|
Your innocence is cruel coquettish and arcane

C D
E|0-------0-------0-0-----0-0-0---|2-------2-------2-------2-------|
B|1-------1-------1-1-----1-1-1---|3-------3-------3-------3-------|
G|0-------0-------0-0-----0-0-0---|2-------2-------2-------2-------|
D|2-------2-------2-2-----2-2-2---|0-------0-------0-------0-------|
A|3-------3-------3-3-----3-3-3---|--------------------------------|
E|--------------------------------|--------------------------------|
But I need it all the same

Solo is 2, 4, 5, 7, 9 on the D string

Em
E|0-------------------------------|0-------------------------------|
B|0-------------------------------|0-------------------------------|
G|0-------------------------------|0-------------------------------|
D|2-------------------------------|2-------------------------------|
A|2-------------------------------|2-------------------------------|
E|0-------------------------------|0-------------------------------|
| | |
E|0-------------------------------|0-------------------------------|
B|0-------------------------------|0-------------------------------|
G|0-------------------------------|0-------------------------------|
D|2-------------------------------|2-------------------------------|
A|2-------------------------------|2-------------------------------|
E|0-------------------------------|0-------------------------------|

Em D
E|0-------------------------------|------------------------2-------|
B|0-------------------------------|------------------------3-------|
G|0-------------------------------|------------------------2-------|
D|2-------------------------------|------------------------0-------|
A|2-------------------------------|--------------------------------|
E|0-------------------------------|--------------------------------|
I thought of you tonight in silent seething heat

C D
E|0-------------------------------|------------------------2-2-2---|
B|1-------------------------------|------------------------3-3-3---|
G|0-------------------------------|------------------------2-2-2---|
D|2-------------------------------|------------------------0-0-0---|
A|3-------------------------------|--------------------------------|
E|--------------------------------|--------------------------------|
Through charred and damned desire
dark Eros wounding me

Em D
E|0-------------------------------|------------------------2-------|
B|0-------------------------------|------------------------3-------|
G|0-------------------------------|------------------------2-------|
D|2-------------------------------|------------------------0-------|
A|2-------------------------------|--------------------------------|
E|0-------------------------------|--------------------------------|
Your innocence is cruel and your ass like Jesus feet

C D
E|0-------------------------------|2-------------------------------|
B|1-------------------------------|3-------------------------------|
G|0-------------------------------|2-------------------------------|
D|2-------------------------------|0-------------------------------|
A|3-------------------------------|--------------------------------|
E|--------------------------------|--------------------------------|
Worth kissing worth kissing

C D Em D
E|0---------------2---------------|0---------------2---------------|
B|1---------------3---------------|0---------------3---------------|
G|0---------------2---------------|0---------------2---------------|
D|2---------------0---------------|2---------------0---------------|
A|3-------------------------------|2-------------------------------|
E|--------------------------------|0-------------------------------|
Give yourself to me, I share your need

C D Em D
E|0---------------2---------------|0---------------2---------------|
B|1---------------3---------------|0---------------3---------------|
G|0---------------2---------------|0---------------2---------------|
D|2---------------0---------------|2---------------0---------------|
A|3-------------------------------|2-------------------------------|
E|--------------------------------|0-------------------------------|
Give yourself to me and come to me

C D Em D
E|0---------------2---------------|0---------------2---------------|
B|1---------------3---------------|0---------------3---------------|
G|0---------------2---------------|0---------------2---------------|
D|2---------------0---------------|2---------------0---------------|
A|3-------------------------------|2-------------------------------|
E|--------------------------------|0-------------------------------|
Give yourself to me, I share your need

C D Em D
E|0---------------2---------------|0---------------2---------------|
B|1---------------3---------------|0---------------3---------------|
G|0---------------2---------------|0---------------2---------------|
D|2---------------0---------------|2---------------0---------------|
A|3-------------------------------|2-------------------------------|
E|--------------------------------|0-------------------------------|
Give yourself to me, I share your need

Em
E|0-------------------------------|--------------------------------|
B|0-------------------------------|--------------------------------|
G|0-------------------------------|--------------------------------|
D|2-------------------------------|--------------------------------|
A|2-------------------------------|--------------------------------|
E|0-------------------------------|--------------------------------|

I thought of you tonight, through blank and starving eyes
In this one moment of clarity, blink the darkness in my eyes
Your lips like bruised vulva, your ass like Jesus feet
Worth kissing, give yourself to me

Em D
E|0-------------------------------|------------------------2-------|
B|0-------------------------------|------------------------3-------|
G|0-------------------------------|------------------------2-------|
D|2-------------------------------|------------------------0-------|
A|2-------------------------------|--------------------------------|
E|0-------------------------------|--------------------------------|
I thought of you tonight in silent seething heat

C D
E|0-------------------------------|------------------------2-2-2---|
B|1-------------------------------|------------------------3-3-3---|
G|0-------------------------------|------------------------2-2-2---|
D|2-------------------------------|------------------------0-0-0---|
A|3-------------------------------|--------------------------------|
E|--------------------------------|--------------------------------|
Through charred and damned desire
dark Eros killing me

Em D
E|0-------------------------------|------------------------2-------|
B|0-------------------------------|------------------------3-------|
G|0-------------------------------|------------------------2-------|
D|2-------------------------------|------------------------0-------|
A|2-------------------------------|--------------------------------|
E|0-------------------------------|--------------------------------|
Your lips like bruised vulva your ass like Jesus feet

C D
E|0-------------------------------|2-------------------------------|
B|1-------------------------------|3-------------------------------|
G|0-------------------------------|2-------------------------------|
D|2-------------------------------|0-------------------------------|
A|3-------------------------------|--------------------------------|
E|--------------------------------|--------------------------------|
Worth kissing worth kissing

C D Em D
E|0---------------2---------------|0---------------2---------------|
B|1---------------3---------------|0---------------3---------------|
G|0---------------2---------------|0---------------2---------------|
D|2---------------0---------------|2---------------0---------------|
A|3-------------------------------|2-------------------------------|
E|--------------------------------|0-------------------------------|
Give yourself to me, I share your need

C D Em D
E|0---------------2---------------|0---------------2---------------|
B|1---------------3---------------|0---------------3---------------|
G|0---------------2---------------|0---------------2---------------|
D|2---------------0---------------|2---------------0---------------|
A|3-------------------------------|2-------------------------------|
E|--------------------------------|0-------------------------------|
Give yourself to me, I share your need

C D Em D
E|0---------------2---------------|0---------------2---------------|
B|1---------------3---------------|0---------------3---------------|
G|0---------------2---------------|0---------------2---------------|
D|2---------------0---------------|2---------------0---------------|
A|3-------------------------------|2-------------------------------|
E|--------------------------------|0-------------------------------|
Give yourself to me, I share your need

C D Em D
E|0---------------2---------------|0---------------2---------------|
B|1---------------3---------------|0---------------3---------------|
G|0---------------2---------------|0---------------2---------------|
D|2---------------0---------------|2---------------0---------------|
A|3-------------------------------|2-------------------------------|
E|--------------------------------|0-------------------------------|
Give yourself to me, I share your need

Em C
E|0-------------------------------|0-------------------------------|
B|0-------------------------------|1-------------------------------|
G|0-------------------------------|0-------------------------------|
D|2-------------------------------|2-------------------------------|
A|2-------------------------------|3-------------------------------|
E|0-------------------------------|--------------------------------|
Kiss me through your warming darkness

Em D
E|0-------------------------------|2-------------------------------|
B|0-------------------------------|3-------------------------------|
G|0-------------------------------|2-------------------------------|
D|2-------------------------------|0-------------------------------|
A|2-------------------------------|--------------------------------|
E|0-------------------------------|--------------------------------|
Kiss me now so I can breathe

Em C
E|0-------------------------------|0-------------------------------|
B|0-------------------------------|1-------------------------------|
G|0-------------------------------|0-------------------------------|
D|2-------------------------------|2-------------------------------|
A|2-------------------------------|3-------------------------------|
E|0-------------------------------|--------------------------------|
Kiss me once then I am leaving

Em D
E|0-------------------------------|2-------------------------------|
B|0-------------------------------|3-------------------------------|
G|0-------------------------------|2-------------------------------|
D|2-------------------------------|0-------------------------------|
A|2-------------------------------|--------------------------------|
E|0-------------------------------|--------------------------------|
Kiss me once then kiss yourself goodbye

Em
E|0-------------------------------|0-------------------------------|
B|0-------------------------------|0-------------------------------|
G|0-------------------------------|0-------------------------------|
D|2-------------------------------|2-------------------------------|
A|2-------------------------------|2-------------------------------|
E|0-------------------------------|0-------------------------------|

Em D
E|0-------------------------------|0-----------------------2-------|
B|0-------------------------------|0-----------------------3-------|
G|0-------------------------------|0-----------------------2-------|
D|2-------------------------------|2-----------------------0-------|
A|2-------------------------------|2-------------------------------|
E|0-------------------------------|0-------------------------------|
I thought of you tonight in simple twists and turns

C
E|0-------------------------------|--------------------------------|
B|1-------------------------------|--------------------------------|
G|0-------------------------------|--------------------------------|
D|2-------------------------------|--------------------------------|
A|3-------------------------------|--------------------------------|
E|--------------------------------|--------------------------------|
Incarcerated here I'm handcuffed to this world

Em
E|0-------------------------------|
B|0-------------------------------|
G|0-------------------------------|
D|2-------------------------------|
A|2-------------------------------|
E|0-------------------------------|

This transcription was done by Alex Kruczkowski ([email protected]),
Which is partly based on a transcription by Rick Stirling
([email protected]).

You can find the web's most comprehensive archive of Therapy? tablature
At .
------------------------------------------------------------------------------

Log In to leave a comment

After registration we will return you to the same place
Comments
face-with-monocle
If you wait a bit, some comments may appear here...

Shhh...

Most Popular
You Might Like