The Waifs logo

Feeling Sentimental The Waifs

  • 0
  • Share
  • Transposing
    0
  • Font Size
The Waifs – Feeling Sentimental
Ukulele, tuned to A D F# B
INTRO
D# C#dim C#m A#dim B C#7 F#
B|-4-----------5---4-------2-----------2---0-----------4-2---0-0---------------7---|
F#|-4---7-7---4-4---4-------2---5-5---2-1-----1-0---0-----------2---4---4---7---7---|
D|-5-----------5---5-------2-----------2-----------1-----------3-------4---8---8---|
A|-6-----------4---6-------4-----------1-----------2-----------4-------4---9-------|

VERSE 1
D#m7 C# B F#
B|-4-----------4-----------4---2-----0-----0-------0---0-0---0-0---0-----------7---|
F#|-4-----7-7---7-----------2---2-4-----4-----------0---0-0---0-2---3---4---7---4---|
D|-4-----------4-----------3---3-3-----------------1---1-1---1-1---1---4-------4---|
A|-4-----------4-----------4---4-4-----------------2-------------------4-------4---|

D# C#dim C#m A#dim B C#7 F#
B|-4-----------5---4-------2-----------2---0-----------4-2---0-0---------------7---|
F#|-4---7-7---4-4---4-------2---5-5---2-1-----1-0---0-----------2-------4---7---4---|
D|-5-----------5---5-------2-----------2-----------1-----------3---3---4-------4---|
A|-6-----------4---6-------4-----------1-----------2-----------4-------4-------4---|

VERSE 2 same as Verse 1

CHORUS
C#7 F# C# F# D#7
B|-2---2-----------------------------------2-------------0---------------------4---|
F#|-----5-------5---4-2-----4---------------5-------2---4-----------4-------4-------|
D|---3-3-------3-----------4-----------3---3-------3---------------4-------5-------|
A|-----4-------4---------6-4---------------4-------4---------6-4---4-------4-------|

Emaj7 C#m7 F#
B|-5-/-2-------0-----------2---2-2---2-2-------------------0-2-4-6-2-4-|
F#|-4-/-1-------2-----------2---5-5---4-4---2---------0-2-4-------------|
D|-5-/-2-------1-----------2---2-2---2-2---2-----1-3-------------------|
A|-------------2-----------2---------------2---4-----------------------|

SOLO over verse chord progression

CHORUS

VERSE 3

END RIFF
B|----------2-----4---7-/-11---|
F#|-5-----4------4--------------|
D|-3-----3----4----------------|
A|-2-----2---------------------|
...heart to heart
(c)
Https://forum.ukuleleunderground.com/member.php?867-Earlyguard
Http://www.youtube.com/user/Sheepstar15

Sun is low
The air is still
Silhouette of pine trees
On the hill

The rising stars do glitter
The bluejays are a twitter
And the evening sky
Is setting in

Stars come out
The moon is full
Its the kind of night
You can't sit still

'Cause you're thinkin' 'bout your baby
Wonderin' if maybe
He is singing to
The same white moon

I'm feelin' sentimental
It isn't hard to do
Could it be coincidental
Or are you feeling sentimental, too?

I'm feeling sentimental
Well, it isn't hard to do
Could it be coincidental
Or are you feeling sentimental, too?

Lovers see the world
As from afar
Wise men gaze
To distance stars

And the troubles that persist
Really don't exist
When your joined together
Heart-to-heart

Log In to leave a comment

After registration we will return you to the same place
Comments
face-with-monocle
If you wait a bit, some comments may appear here...

Shhh...