The Mother Hips logo

Gold Plated The Mother Hips

  • 1
  • Share
  • Transposing
    0
  • Font Size
The Mother Hips – Gold Plated
Intro: G Gadd9/F#  Em  C  D Dsus4 D  Dadd9 Dsus4 D (see below):

|---------3---3----------0--0--2-3-2-0-3-2-------|
|---------3---3----------0--1--3-3-3-3-3-3-------|
|---------0---0----------0--0--2-2-2-2-2-2-------|
|---------0---0----------2--2--0-0-0-0-0-0-------|
|---------2---0----------2--3--------------------|
|--0--2---3---2----------0------------------0--2-|

(repeat)

[Lead Guitar over intro riff] (twice)
|------------------------------------|
|-------------------3-------3-----3--|
|--2b4-(hold)-4-4r2---2-2b4---4r2----| ( D Dsus4 D Dadd9 Dsus4 D)
|------------------------------------|
|------------------------------------|
|------------------------------------|

Verse:
D G D
There's some boys I know
D Am7 G
Who play that rock and roll
D G D
They've slept on a lot of floors
D Am7 G
To get that California Soul
D Am7 G
They've got that California Soul

There's a girl I know
That I don't really know
She helps me face the time
When there is trouble on my mind
When my mind is on my soul

Chorus:
C# / D (slide up)
|-1-/-2-----|
|-2-/-3-----|
|-1-/-2-----|
|-----------|
|-----------|
|-----------|

G Gadd9/F# E A G C# / D (slide)
All my problems are gold plated
G Gadd9/F# E A G C# / D (slide)
All my bottoms exaggerated
G Gadd9/F# E A G
My connections incarcerated
D G D C
And I don't know when but my genius
A#
Faded

Bridge:
G D G A
Now if time makes a difference while we're gone
G D
Just forget that reference
G A
You've probably never heard that song

Repeat Intro Riff / Lead Guitar Riff

D G D
See I just have to touch
D Am7 G
Everything I see
D G D
Looking isn't good
D Am7 G
Enough for me
D Am7 G
It's not good enough for me

D G D
I'm searching for a place
D Am7 G
That's empty and its free
D Am7 G
And I do believe I will ask you to come with me

Chorus:
C# / D (slide up)
|-1-/-2-----|
|-2-/-3-----|
|-1-/-2-----|
|-----------|
|-----------|
|-----------|

G Gadd9/F# E A G C# / D (slide)
All my problems are gold plated
G Gadd9/F# E A G C# / D (slide)
All my bottoms exaggerated
G Gadd9/F# E A G
My connections incarcerated
D G D C
And I don't know when (Don't know when)
D G D C
I don't know where (Don't know where)
D G D C
I don't when but my genius

A# (8x) G (8x)
Faded

Outro: D (hold)

Log In to leave a comment

After registration we will return you to the same place
Comments
face-with-monocle
If you wait a bit, some comments may appear here...

Shhh...

Most Popular