The Living End logo

Uncle Harry The Living End

  • 2
  • Share
  • Transposing
    0
  • Font Size
    15
The Living End – Uncle Harry
Chorus:

C         F    G    A        F   G     C       F    G    A         F   G
E----------------------------------------------------------------------------|
B----------------------------------------------------------------------------|
G-5-5-5-5------------2-2-2-2------------5-5-5-5------------2-2-2-2-----------|
D-5-5-5-5--3-3--5-5--2-2-2-2--3-3--5-5--5-5-5-5--3-3--5-5--2-2-2-2--3-3--5-5-|
A-3-3-3-3--3-3--5-5--0-0-0-0--3-3--5-5--3-3-3-3--3-3--5-5--0-0-0-0--3-3--5-5-|
E----------1-1--3-3-----------1-1--3-3-----------1-1--3-3-----------1-1--3-3-|
C
E----------------|
B----------------|
G-5-5-5-5-5-5-5--|
D-5-5-5-5-5-5-5--|
A-3-3-3-3-3-3-3--|
E----------------|

Verse:
A#     A    A#       A#    A   A#           C#      C    C#           C  D
E-6--6--5--5--6--6------6--6--5--5--6--6-------------------------------------------|
B-6--6--5--5--6--6------6--6--5--5--6--6----------6--6--5--5--6--6-----------------|
G-7--7--6--6--7--7------7--7--6--6--7--7----------6--6--5--5--6--6----------5-7----|
D-8--8--7--7--8--8------8--8--7--7--8--8-----(x2)-6--6--5--5--6--6-----(x3)-5-7----|
A-8--8--7--7--8--8------8--8--7--7--8--8----------4--4--3--3--4--4----------3-5----|
E-6--6--5--5--6--6-2-1--6--6--5--5--6--6-2-1-----------------------6-5-------------|

Chorus

Verse2:

F        G#      D#       F
E----------------------------------------------------|
B----------------------------------------------------|
G-------------------------8--8--8--8-----------------|
D-3--3--3--3--6--6--6--6--8--8--8--8--10--10--10--10-|(x4)
A-3--3--3--3--6--6--6--6--6--6--6--6--8---8---8---8--|
E-1--1--1--1--4--4--4--4-----------------------------|

D#    E    F   D#   E   F   D#   E   F    C
E--------------------------------------------------------------------|
B--------------------------------------------------------------------|
G-8--8--9--9--10---8--8--9--9--10---8--8--9--9--10-------------------|
D-8--8--9--9--10---8--8--9--9--10---8--8--9--9--10--10~-10~-10~-10~--|
A-6--6--7--7--8----6--6--7--7--8----6--6--7--7--8---10~-10~-10~-10~--|
E---------------------------------------------------8~--8~--8~--8~---|

Chorus

Bridge:

F   G#  D#  F
E-1--4----------|
B-1--4--8--10---|
G-2--5--8--10---|
D-3--6--8--10---|
A-3--6--6--8----|
E-1--4----------|

F   G#  D#  C
E-1--4----------|
B-1--4--8--5----|
G-2--5--8--5----|
D-3--6--8--5----|
A-3--6--6--3----|
E-1--4----------|

F   G#  A# C#  A#
E-3--4--6-------|
B-3--4--6--6--3-|
G-2--5--7--6--3-|
D-3--6--8--6--3-|
A-3--6--8--4--1-|
E-1--4--6-------|

F   G#  C  A#            F  G#    C   F
E-1--4----------:-----------------------|
B-1--4--5--3----:-----------------------|
G-2--5--5--3----:----------------5------|
D-3--6--5--3----:--------3---6---5---3--|
A-3--6--3--1----:--------3---6---3---3--|
E-1--4----------:--------1---4-------1--|

Then guitar by itself goes:

F        G#      D#       F
E--------------------------------------|
B--------------------------------------|
G-------------8-8-8-8------------------|
D-3-3-3-3-6-6-6-6-8-8-8-8-10-10-10-10--|(x2)
A-3-3-3-3-6-6-6-6-6-6-6-6-8--8--8--8---|
E-1-1-1-1-----4-4-4-4------------------|

Verse 2

Chorus

C         F    G    A        F   G     C       F    G    A         F   G
E----------------------------------------------------------------------------|
B----------------------------------------------------------------------------|
G-5-5-5-5------------2-2-2-2------------5-5-5-5------------2-2-2-2-----------|
D-5-5-5-5--3-3--5-5--2-2-2-2--3-3--5-5--5-5-5-5--3-3--5-5--2-2-2-2--3-3--5-5-|
A-3-3-3-3--3-3--5-5--0-0-0-0--3-3--5-5--3-3-3-3--3-3--5-5--0-0-0-0--3-3--5-5-|
E----------1-1--3-3-----------1-1--3-3-----------1-1--3-3-----------1-1--3-3-|
F        G      C
E-------------------|
B-------------------|
G----------------5--|
D-3-3-3-3-5-(x3)-5--|
A-3-3-3-3-5------3--|
E-1-1-1-1-3---------|

Last Chorus(key change)
  D      G    A     B     G    A    D       G   A    D  G  A  D          D
E----------------------------------------------------0---3--5-0--------------|
B----------------------------------------------------4--3--5--7--------------|
G-7-7-7-7----------4-4-4-4----------7-7-7-7----------4--4--6--7-----------7--|
D-7-7-7-7-5-5-7-7--4-4-4-4-5-5-7-7--7-7-7-7-5-5-7-7--4--5--7--7-----------7--|
A-5-5-5-5-5-5-7-7--2-2-2-2-5-5-7-7--5-5-5-5-5-5-7-7--2--5--7--5-----end..-5--|
E---------3-3-5-5----------3-3-5-5----------3-3-5-5-----3--5-----------------|

Sorry if any parts are wrong. I did this tab in like 10 mins!, Mick

Log In to leave a comment

After registration we will return you to the same place
Comments
face-with-monocle
If you wait a bit, some comments may appear here...

Shhh...