Loading...
The Living End logo

Uncle Harry The Living End

  • 0
  • Share
  • Transposing
    0
  • Font Size
-THE LIVING END-
Uncle Harry

Tabbed By Michael Fryar
[email protected]
Discuss? ICQ-67053832

Great Song!, Best pub sing-a-long eva!

Intro:

E-x-x-x-x--x-x--|
B-x-x-x-x--x-x--|
G-x-x-x-x--x-x--|
D-x-x-x-x--x-x--|
A-x-x-x-x--x-x--|
E-x-x-x-x--x-x--|

Chorus:

C F G A F G
E--------------------------------------|
B--------------------------------------|
G-5-5-5-5------------2-2-2-2-----------|
D-5-5-5-5--3-3--5-5--2-2-2-2--3-3--5-5-|
A-3-3-3-3--3-3--5-5--0-0-0-0--3-3--5-5-|
E----------1-1--3-3-----------1-1--3-3-|

C F G A F G
E--------------------------------------|
B--------------------------------------|
G-5-5-5-5------------2-2-2-2-----------|
D-5-5-5-5--3-3--5-5--2-2-2-2--3-3--5-5-|
A-3-3-3-3--3-3--5-5--0-0-0-0--3-3--5-5-|
E----------1-1--3-3-----------1-1--3-3-|

C
E----------------|
B----------------|
G-5-5-5-5-5-5-5--|
D-5-5-5-5-5-5-5--|
A-3-3-3-3-3-3-3--|
E----------------|

Verse:

A# A A#
E----------------------|
B----------------------|
G----3----2----3-------|
D----3----2----3-------|(x3)
A--1-1--0-0--1-1-------|
E-----------------2-1--|
/ palm muted..

A# A A# B C C#
E----------------------------|
B----------------------------|
G----3----2---3-3-4-4-5-5-6--|
D----3----2---3-3-4-4-5-5-6--|
A--1-1--0-0---1-1-2-2-3-3-4--|
E----------------------------|
/palm muted

C# C C# C D
E----------------------------------|
B----------------------------------|
G----6----5----6-------------5--7--|
D----6----5----6-------(x3)--5--7--|
A--4-4--3-3--4-4-------------3--5--|
E-----------------5-4--------------|
/ palm muted..

Chorus

Verse2:

F G# D# F
E-----------------------------------------|
B-----------------------------------------|
G--------------------8-8-8-8--10-10-10-10-|
D--3-3-3-3--6-6-6-6--8-8-8-8--10-10-10-10-|(x4)
A--3-3-3-3--6-6-6-6--6-6-6-6--8--8--8--8--|
E--1-1-1-1--4-4-4-4-----------------------|

D# F D# F# D# F#
E-----------------------------------------|
B-----------------------------------------|
G--8-8-8-8--10--8-8-8-8--10--8-8-8-8--10--|
D--8-8-8-8--10--8-8-8-8--10--8-8-8-8--10--|
A--6-6-6-6--8---6-6-6-6--8---6-6-6-6--8---|
E-----------------------------------------|

F#
E------------------|
B------------------|
G--10--10--10--10--|
D--10--10--10--10--|
A--8---8---8---8---|
E------------------|

Chorus

Bridge:

F G# D# F
E--1----4---------1--|
B--1----4----8----1--|
G--2----5----8----2--|
D--3----6----8----3--|
A--3----6----6----3--|
E--1----4---------1--|

F G# D# Cm
E--1----4---------3--|
B--1----4----8----4--|
G--2----5----8----5--|
D--3----6----8----5--|
A--3----6----6----3--|
E--1----4------------|

F G# A# C#7 D7
E--3----4----6----8----9---|
B--3----4----6----8----9---|
G--2----5----7----9----10--|
D--3----6----8----8----9---|
A--3----6----8----10---11--|
E--1----4----6----8----9---|

F G# C A#
E--------------------------------------|
B--------------------------------------|
G----------------5-5--3-3-3-3-3-3-3-3--|
D--3-3-3-3--6-6--5-5--3-3-3-3-3-3-3-3--|
A--3-3-3-3--6-6--3-3--1-1-1-1-1-1-1-1--|
E--1-1-1-1--4-4------------------------|

F G# C F
E-----------------|
B-----------------|
G----------5------|
D--3---6---5---3--|
A--3---6---3---3--|
E--1---4-------1--|

Then guitar by itself goes:

F G# D# F
E-----------------------------------------|
B-----------------------------------------|
G--------------------8-8-8-8--10-10-10-10-|
D--3-3-3-3--6-6-6-6--8-8-8-8--10-10-10-10-|(x2)
A--3-3-3-3--6-6-6-6--6-6-6-6--8--8--8--8--|
E--1-1-1-1--4-4-4-4-----------------------|

Verse 2

Last Chorus:

C F G A F G
E--------------------------------------|
B--------------------------------------|
G-5-5-5-5------------2-2-2-2-----------|
D-5-5-5-5--3-3--5-5--2-2-2-2--3-3--5-5-|
A-3-3-3-3--3-3--5-5--0-0-0-0--3-3--5-5-|
E----------1-1--3-3-----------1-1--3-3-|

C F G A F G
E--------------------------------------|
B--------------------------------------|
G-5-5-5-5------------2-2-2-2-----------|
D-5-5-5-5--3-3--5-5--2-2-2-2--3-3--5-5-|
A-3-3-3-3--3-3--5-5--0-0-0-0--3-3--5-5-|
E----------1-1--3-3-----------1-1--3-3-|

F G C
E-------------------|
B-------------------|
G----------------5--|
D-3-3-3-3-5-(x3)-5--|
A-3-3-3-3-5------3--|
E-1-1-1-1-3---------|

Key Change

D G A B G A
E-----------------------------------|
B-----------------------------------|
G-7-7-7-7----------4-4-4-4----------|
D-7-7-7-7-5-5-7-7--4-4-4-4-5-5-7-7--|
A-5-5-5-5-5-5-7-7--2-2-2-2-5-5-7-7--|
E---------3-3-5-5----------3-3-5-5--|

D G A D G A D D
E--------------------0--3--5--0--------------|
B--------------------4--3--5--7--------------|
G--7-7-7-7-----------4--4--6--7-----------7--|
D--7-7-7-7-5-5-7-7---4--5--7--7-----------7--|
A--5-5-5-5-5-5-7-7---2--5--7--5-----end..-5--|
E----------3-3-5-5------3--5-----------------|

Log In to leave a comment

After registration we will return you to the same place
Comments
face-with-monocle
If you wait a bit, some comments may appear here...

Shhh...