The Living End logo

Sleep On It The Living End

  • 0
  • Share
  • Transposing
    0
  • Font Size
The Living End – Sleep On It
   -THE LIVING END-
Sleep On It
Tabbed By Michael Fryar
[email protected]

S=slide
P=pull-off
H=hammer-on
Sw=sweep
: = solo section(learn one at a time!)
X=strum dead notes
~=vibrado

Intro: Strum sorta like:

Part1 -
Am G
E-------------------------3-3--|
B--------1-1---1----------3-3--|
G------2---------2--------4-4--|
D----2-------2-------x-x--5-5--|
A--0---------------0-x-x--5-5--|
E--------------------x-x--3-3--|

F E
E------1-1---------------0-0-----------|
B-----1------1----------0------0-------|
G----2---------2-------1---------1-1---|
D---3------3-----3----2------2---------|
A--3-----------------2-----------------|
E-1-----------------0------------------|

Part2
Am G
E-------------------------3-3-|
B--------1-1---1----------3-3-|
G------2---------2--------4-4-|
D----2-------2-------x-x--5-5-|
A--0---------------0-x-x--5-5-|
E--------------------x-x--3-3-|

F E
E------1-1---------------0-0-----------|
B-----1------1----------0----0---------|
G-----2---------2------1-------1-------|
D---3------3-----3----2----------------|
A--3-----------------2-----------------|
E-1----------------0-------------------|

Part3
Am G
E-------------------------3-3-|
B--------1-1---1----------3-3-|
G------2---------2--------4-4-|
D----2-------2-------x-x--5-5-|
A--0---------------0-x-x--5-5-|
E--------------------x-x--3-3-|

F E
E------1-1---------------0-0------------|
B-----1------1----------0----0----------|
G----2---------2-------1-------1--------|
D---3------3-----3----2-----------------|
A--3-----------------2------------------|
E-1-----------------0-------------------|

Verse:

A G F A
E--------------------------------------------0--0-0-|
B--------------------------------------------0--0-0-|
G-2--2-2-2-2-2-2-2-2-2-2--0------------------1--1-1-|
D-2--2-2-2-2-2-2-2-2-2-2--0-3--3-3-3-3-3-3-3-2--2-2-|
A-0--0-0-0-0-0-0-0-0-0-0--x-3--3-3-3-3-3-3-3-2--2-2-|
E-------------------------3-1--1-1-1-1-1-1-1-0--0-0-|
/ palm muted........ / palm mute...

Then repeat part 1 of Intro, then:

F# D
E-----------------------3--3-3-3-3-3-3-3-3-3-|
B-2--2-2-2-2-2-2-2-2-2--3--3-3-3-3-3-3-3-3-3-|
G-3--3-3-3-3-3-3-3-3-3--2--2-2-2-2-2-2-2-2-2-|
D-4--4-4-4-4-4-4-4-4-4--0--0-0-0-0-0-0-0-0-0-|
A-4--4-4-4-4-4-4-4-4-4-----------------------|
E-2--2-2-2-2-2-2-2-2-2-----------------------|

F# D E D# D C
E-2--2-2-2-2-2-2-2-2-2--2-----------------|
B-2--2-2-2-2-2-2-2-2-2--3-----------------|
G-3--3-3-3-3-3-3-3-3-3--2---9-9---9-8-7-5-|
D-4--4-4-4-4-4-4-4-4-4--0---9-9---9-8-7-5-|
A-4--4-4-4-4-4-4-4-4-4------7-7---7-6-5-3-|
E-2--2-2-2-2-2-2-2-2-2--------------------|

E----------------------------------------|
B----------------------------------------|
G----------------------------------------|
D----------------------------------------|
A----------------------------------------|
E----------------------------------------|

E----------------------------------------|
B----------------------------------------|
G----------------------------------------|
D----------------------------------------|
A----------------------------------------|
E----------------------------------------|

Chorus: A - F - G - A
A - F - E
F - G - G# - A - F - E - A

A F G A
E---------1-----3--------|
B---2-----1-----3-----2--|
G-2-2-----2-----4---2-2--|
D-2-2---3-3---5-5---2-2--|
A-0-0---3-3---5-5---0-0--|
E-------1-1---3-3--------|

A F E
E---------1-------0-0--|
B---2-----1-------0-0--|
G-2-2-----2-------1-1--|
D-2-2---3-3---2-2-2-2--|
A-0-0---3-3---2-2-2-2--|
E-------1-1---0-0-0-0--|

F G G# A
E----------------------------------------------------|
B----------------------------------------------------|
G----------------------------------------2-2-2-2-2-2-|
D-3-3-3-3-3-3--5-5-5-5-5-5--6-6-6-6-6-6--2-2-2-2-2-2-|
A-3-3-3-3-3-3--5-5-5-5-5-5--6-6-6-6-6-6--0-0-0-0-0-0-|
E-1-1-1-1-1-1--3-3-3-3-3-3--4-4-4-4-4-4--------------|

F E A
E--1----0--------|
B--1----0--------|
G--2----1----2---|
D--3----2----2---|
A--3----2----0---|
E--1----0--------|

Verse (some parts from the intro are
replaced with some of the strumming of
the chords just like in the intro
So just look at the stuff in the Intro
and Verse for all the correct parts.)

Chorus

Solo:

E-12-------:--------12-10----------------:|
B----13----:-12s-13-------13-12-13p12p10-:|
G-------14-:-----------------------------:|
D----------:-----------------------------:|
A----------:-----------------------------:|
E----------:-----------------------------:|

E-5p3p0---3p0------------------------------------:|
B-------3-----3---5------------------------------:|
G---------------5---7p5---7p5-----s5-------------:|
D-----------------------7-----7p5----7-----------:|
A--------------------------------------7-5-7-5-5-:|
E------------------------------------------------:|

E-----5-------7------7-11p7--------|
B----6-6-----8-8----8-------8------|
G-s-5-----s-7----s-8----------8-s9-|
D----------------------------------|
A----------------------------------|
E----------------------------------|

E---------sw12-15s--------s-|
B-----sw13----------------s-|
G-sw14--------------------s-|
D-------------------2-3-2-s-|
A-------------------2-3-2-s-|
E-------------------0-1-0-s-|

Bridge: F dim_7th

E---------------------------------------|
B---------------------------------------|
G---9---------10---------9--------------|
D-----10---------11--------10-----------|(repeat
A-7------7--8-------8--7------7---------| as needed)
E-------------------------------10-8-7--|
/ p a l m m u t e d..............

Eventually you fade into this: (its hard to notice)

Am A
E-5--5--5--5--5--5--5----------------------------|
B-5--5--5--5--5--5--5----------------------------|
G-5--5--5--5--5--5--5----------------------------|
D-7--7--7--7--7--7--7--7-7-7-7-7-7-7-7-7-7-7-7-7-|
A-7--7--7--7--7--7--7--7-7-7-7-7-7-7-7-7-7-7-7-7-|
E-5--5--5--5--5--5--5--5-5-5-5-5-5-5-5-5-5-5-5-5-|

Then a solo sorta like (this may not be right
But it`s along these lines):
E--8--10-10-12^-12^-12^-10--------12-10-----------------|
B-------------------------12------------12-10-----------|
G----------------------------14---------------12-10-9-7-|
D-------------------------------------------------------|
A-------------------------------------------------------|
E-------------------------------------------------------|

E---------------------------------------------------|
B------------------------------------------7-8-10-7-|
G-----------------------------------7-9-10----------|
D-9-7-----------9^-7---------7-9-10-----------------|
A-----9-8-7-5--------9~--7-9------------------------|
E---------------------------------------------------|

E-5-4-3-2---------------|
B-7-6-5-4--7~-7~-7~-7~--|
G----------7~-7~-7~-7~--|
D-----------------------|
A-----------------------|
E-----------------------|

Chorus: *key change*
A# - F# - G# - A#
A# - F# - F
F# - G# - A - A#

A# F# G# A# A# F# F
E---------2-----4-----6-----------2----1-1--|
B---3-----2-----4-----6-----3-----2----1-1--|
G-3-3-----3-----5-----7---3-3-----3----2-2--|
D-3-3---4-4---6-6---8-8---3-3---4-4--3-3-3--|
A-1-1---4-4---6-6---8-8---1-1---4-4--3-3-3--|
E-------2-2---4-4---6-6---------2-2--1-1-1--|

F# G# A A#
E----------------------------------------------------|
B----------------------------------------------------|
G----------------------------------------------------|
D-4-4-4-4-4-4--6-6-6-6-6-6--7-7-7-7-7-7--8-8-8-8-8-8-|
A-4-4-4-4-4-4--6-6-6-6-6-6--7-7-7-7-7-7--8-8-8-8-8-8-|
E-2-2-2-2-2-2--4-4-4-4-4-4--5-5-5-5-5-5--6-6-6-6-6-6-|

Outro:

F# F F# F F# F A#
E------------------------|
B------------------------|
G--------------------3---|
D--4--3--4--3--4--3--3---|
A--4--3--4--3--4--3--1---|
E--2--1--2--1--2--1------|

Tabbed By Michael Fryar [email protected]
ICQ #67053832

Log In to leave a comment

After registration we will return you to the same place
Comments
face-with-monocle
If you wait a bit, some comments may appear here...

Shhh...