The Living End logo

Lone Ranger The Living End

  • 0
  • Share
  • Transposing
    0
  • Font Size
The Living End – Lone Ranger
      - TBE lIVING enD -
Lone Ranger
Tabbed By Michael Fryar
[email protected]

H=hammer on
P=pull off
^=bend
S=slide

Intro:

E-----------------------------------------------|
B-----------------------------------------------|
G-----------------------------------------------|
D-----------------------------------------------|
A-2-2-2-2-2-2-2ect-0-1-----------------------2--|
E----------------------4-2---0-0-0-0-2h4p2-2----|

E-----------------------------------------------------|
B--------------------------------------0h2p0----------|
G--------------------------------0h2p0-------0h2p0----|
D--------------2h4p2p0-0---0h2p0-------------------0--|
A-0-0-0-0-2h4-----------------------------------------|
E-----------------------------------------------------|

E--------------------9-10-11-12s---5-4-3----------|
B----2h4p2---2-2^----9-10-11-12s---------5-4-3----|
G-4^-------4---------9-10-11-------------------4--|
D-------------------------------------------------|
A-------------------------------------------------|
E-------------------------------------------------|

E
E-3p2p0----------------------0--|
B-------3p2p0----------------0--|
G-------------3p2p0----------1--|
D-------------------3p2p0----2--|
A----------------------------2--|
E--------------------------0-0--|

Verse:

E
E-------------------------------------------------|
B-------------------------------------------------|
G-9-9-9--9-9-9--9-9-9--9-9-9--9-9-9--9-9-9--9-9-9-|
D-9-9-9--9-9-9--9-9-9--9-9-9--9-9-9--9-9-9--9-9-9-|
A-7-7-7--7-7-7--7-7-7--7-7-7--7-7-7--7-7-7--7-7-7-|
E-------------------------------------------------|
/ p a l m m u t e d........................

C# A C# B
E---------------------------------------|
B---------------------------------------|
G-9-9-9--6-6-6-6-2-2-2-2-6-6-6-6-4-4-4--|
D-9-9-9--6-6-6-6-2-2-2-2-6-6-6-6-4-4-4--| (x2)
A-7-7-7--4-4-4-4-0-0-0-0-4-4-4-4-2-2-2--|
E---------------------------------------|
.....

A
E-------------------------------------------------|
B-------------------------------------------------|
G-2-2-2--2-2-2--2-2-2--2-2-2--2-2-2--2-2-2--2-2-2-|
D-2-2-2--2-2-2--2-2-2--2-2-2--2-2-2--2-2-2--2-2-2-|
A-0-0-0--0-0-0--0-0-0--0-0-0--0-0-0--0-0-0--0-0-0-|
E-------------------------------------------------|
/ p a l m m u t e d........................

E
E----------------------------------------|
B----------------------------------------|
G-2-2-2----------------------------------|
D-2-2-2--2-2-2---2-2-2---2-2-2---2-2-2---|
A-0-0-0--2-2---2-2-2---2-2-2---2-2-2---2-|
E--------0-0-----0-0-----0-0-----0-0-----|
.......

A
E-------------------------------------------------|
B-------------------------------------------------|
G-2-2-2--2-2-2--2-2-2--2-2-2--2-2-2--2-2-2--2-2-2-|
D-2-2-2--2-2-2--2-2-2--2-2-2--2-2-2--2-2-2--2-2-2-|
A-0-0-0--0-0-0--0-0-0--0-0-0--0-0-0--0-0-0--0-0-0-|
E-------------------------------------------------|
/ p a l m m u t e d........................

A B C D D# E
E----------------------------------------------|
B----------------------------------------------|
G-2-2-2--4-4-4--4-4-4--4-4-4--4-4-4--4-5-7s8-9-|
D-2-2-2--4-4-4--4-4-4--4-4-4--4-4-4--4-5-7s8-9-|
A-0-0-0--2-2-2--2-2-2--2-2-2--2-2-2--2-3-5s6-7-|
E----------------------------------------------|
......

Chorus:

E G D E
E------------------------------|
B------------------------------|
G-9--12--7--9------------------|
D-9--12--7--9------------------|(x4)
A-7--10--5--7------------------|
E-------------0-0-0-0-0-0-0-0--|

B A G
E------------------------3---3---3--|
B------------------------3---3---3--|
G-4--4-4-4---2--2-2-2----0---0---0--|
D-4--4-4-4---2--2-2-2----0---0---0--|
A-2--2-2-2---0--0-0-0--3-2-2-2-2-2--|
E----------------------3-3-3-3-3-3--|

Solo1:

E----------------------------------------------|
B----------------------------------------------|
G----------------------------------------------|
D--------------------------------2h4p2p0-------|
A-----------------2--0-0-0-0-2h4---------------|
E-0-0-0-0-2h4p2-2------------------------------|

E------------------7-----------------9--------7-7-7-|
B--------------------10-9-7------------10-9-7-7---7-|
G-----2-4p2-----9^----------9-7-7--9----------------|
D-2-4-------4s7-------------------------------------|
A---------------------------------------------------|
E---------------------------------------------------|

make each bend get bigger and bigger
E-7^-7^-7^-7^-7^-7^-7^-----------4-3-1-------------0-----|
B--------------------------------------4-3-1-------0-----|
G--------------------------------------------3-2---1-----|
D--------------------------------------------------2s3s2-|
A--------------------------------------------------2s3s2-|
E------------------------------------------------0-0-----|

Verse

Chorus

Solo 2:

E-----------------------------------------------|
B-----------------------------------------------|
G-----------------------------------------------|
D-----------------------------------------------|
A--------------------------------------------2--|
E-0-0-0-0-0-0-0-0-0-0-0-0-3~-0-0-0-0-2h4p2-2----|

E------------------------------------------------|
B----------------------------------oh2p0---------|
G----------------------------0h2p0-------0h2p0---|
D-------------2h4p2-0--0h2p0-------------------0-|
A-0-0-0-0-2h4------------------------------------|
E------------------------------------------------|

B C C# D D# E C# D D# E F F#
E--------------------------------------|
B--------------------------------------|
G-4--5--6--7--8--9--6--7--8--9--10-12--|
D-4--5--6--7--8--9--6--7--8--9--10-12--|
A-2--3--4--5--6--7--4--5--6--7--8--9---|
E--------------------------------------|

E---------------------------------------------------------|
B--------------------------10---------8p7---------10p9----|
G-------------9---------------9-----9-----9----11------11-|
D-----------9----7-7-7-7-7--------7----------9------------|
A-7-7-7-7-7-----------------------------------------------|
E---------------------------------------------------------|

E
E-----|
B-----|
G-9~--|
D-9~--|
A-7~--|
E-----|

Last Verse:

A
E-------------------------------------------------|
B-------------------------------------------------|
G-2-2-2--2-2-2--2-2-2--2-2-2--2-2-2--2-2-2--2-2-2-|
D-2-2-2--2-2-2--2-2-2--2-2-2--2-2-2--2-2-2--2-2-2-|
A-0-0-0--0-0-0--0-0-0--0-0-0--0-0-0--0-0-0--0-0-0-|
E-------------------------------------------------|
/ p a l m m u t e d........................

E
E----------------------------------------|
B----------------------------------------|
G-2-2-2----------------------------------|
D-2-2-2--2-2-2---2-2-2---2-2-2---2-2-2---|
A-0-0-0--2-2---2-2-2---2-2-2---2-2-2---2-|
E--------0-0-----0-0-----0-0-----0-0-----|
.......

A
E-------------------------------------------------|
B-------------------------------------------------|
G-2-2-2--2-2-2--2-2-2--2-2-2--2-2-2--2-2-2--2-2-2-|
D-2-2-2--2-2-2--2-2-2--2-2-2--2-2-2--2-2-2--2-2-2-|
A-0-0-0--0-0-0--0-0-0--0-0-0--0-0-0--0-0-0--0-0-0-|
E-------------------------------------------------|
/ p a l m m u t e d........................

A B C D D# E
E----------------------------------------------|
B----------------------------------------------|
G-2-2-2--4-4-4--4-4-4--4-4-4--4-4-4--4-5-7s8-9-|
D-2-2-2--4-4-4--4-4-4--4-4-4--4-4-4--4-5-7s8-9-|
A-0-0-0--2-2-2--2-2-2--2-2-2--2-2-2--2-3-5s6-7-|
E----------------------------------------------|
......

Chorus

Outro:

E-----------------------------------------------------|
B-----------------------------------------------0h2p0-|
G-----------------------------------------0h2p0-------|
D-------------------------------2---0h2p0-------------|
A---------------2---0-0-0-0-2h4-----------------------|
E-0-0-0-0-2h4p2---------------------------------------|

E----------------------------|
B-------------2h4p2---2^-2^--|
G-0h2p0----4^-------4--------|
D-------0--------------------|
A----------------------------|
E----------------------------|

E--9-10-11-12s---5-4-3----------3p2p0-------------|
B--9-10-11-12s---------5-4-3----------3p2p0-------|
G--9-10-11-------------------4--------------3p2p0-|
D-------------------------------------------------|
A-------------------------------------------------|
E-------------------------------------------------|

E
E-------------0--|
B-------------0--|
G-------------1--|
D--3p2p0------2--|
A-------------2--|
E-----------0-0--|

i`m really sure about this bit here hey
E-------------------------------------------|
B-------------------------------------------|
G----------------------------9-9h11p9-9-9---|
D-------------9---11--9-11-9----------------|
A---------6-9---9---------------------------|
E--7-9-10-----------------------------------|

Here you go psycho over a B pentaonic
Strum your heart out!
This next bit is seriously fast and too hard to write
Out each exact note but it`s something like this.

E-7-10-10-10-7-9-9-9------------------------|
B--------------------10-10-10-7-9-9-9-7-----|
G---------------------------------------9---|
D-------------------------------------------|
A-------------------------------------------|
E-------------------------------------------|

E------------------------------|
B------------------------------|
G-7-9-7-7-7--------------------|
D-----------9-7----------------|
A---------------10-9-7---------|
E----------------------10-9-7--|

E
E-12------------------------------------------------|
B----12--9--12--------------------------------------|
G----------------9---------------------------9-9-9--|
D-------------------9--6--9------------------9-9-9--|
A-----------------------------7--------------7-7-7--|
E--------------------------------7--4--7--0---------|

Sorry if there are any mistakes on this transcription
But it is a very diffucult song to work out, most of
The positioning is right cos I got some help off
Chris Cheney with this transcription.
If you find any wring bits just play around the penatonic
/chormatic scale that is being played.
It works for me!

Log In to leave a comment

After registration we will return you to the same place
Comments
face-with-monocle
If you wait a bit, some comments may appear here...

Shhh...