The Living End logo

Hellbound The Living End

  • 0
  • Share
  • Transposing
    0
  • Font Size
The Living End – Hellbound
  -THE LIVING END-
Hellbound
Tabbed By Mick Fryar
[email protected]

Alright Ive done this transcription up abit becuase I thought
I had ignored it enough (2 years now and I noticed that someone else
Did up their Hellbound tab so I thought yeah I better do mine aswell
Except the other persons tab claims to be better than mine but I think
This one is now better than both becuase Ive gone back to this tab and
Included the fills and more of the solo).

~ = Vibrado
~~ = Vibrado with whammy bar
() = Dont play note,just hold
^ = Bend
* = Harmonic
S = Slide(either way)
SU = Silde up neck
SD = Slide down neck
Ft = Finger Tap
! = Fast Note,Mote is played extreamly fast
(so fast that it`s almost un-noticed)
.. = Hold Chord

GUITAR 1: (Lead)

Intro:

E-0--0--0--0---0--0--0--0-----|
B-3--2--1--0---3--2--1--0-----|
G-0--0--0--0---0--0--0--0-----|
D-2--2--2--2---2--2--2--2-----|
A-2--2--2--2---2--2--2--2-----|
E-0--0--0--0---0--0--0--0-----|

E-------------------------------------------------------------|
B--------13--12---------13--12---------13--12---------13--12--|
G-9--12--12--11--9--12--12--11--9--12--12--11--9--12--12--11--|
D-9--12--10--9---9--12--10--9---9--12--10--9---9--12--10--9---|
A-7--10----------7--10----------7--10----------7--10----------|
E-------------------------------------------------------------|

-0:20
1st Riff:
E--------------------------------------------|
B----------------5--------------1-1-1-1------|
G------------0-4---4-(4)~---2-4-----------2--|
D-!0-2-2-2-2----------------------------3----| (x2)
A--------------------------------------------|
E--------------------------------------------|

Fill:
E---------0~~---|
B---------0~~---|
G-5-4-2-0-0~~---|
D---------2~~---|
A---------2~~---|
E---------0~~---|

2nd Riff:(A)
E-------------3-----------------------------|
B-----------3---3-(3)^------3-4-4-4-4-------|
G---------3---------------5-----------5-5~--|
D-5-5-5-5-----------------------------------| (x2)
A-------------------------------------------|
E-------------------------------------------|

Fill:
E--------------------------------------|
B-0-5p4p0--0-4p3p0--0-3p2p0--0h2p0-0---|
G--------------------------------------|
D--------------------------------------|
A--------------------------------------|
E--------------------------------------|

-0:49

2nd Riff:(B)

E-------------------------------|
B----------------5--------------|
G------------0-4---4-(4)~--5-4--|
D-!0-2-2-2-2--------------------|
A-------------------------------|
E-------------------------------|

E-------------------------------------------------------------0~~-|
B--------13--12---------13--12---------13--12---------13--12--0~~-|
G-9--12--12--11--9--12--12--11--9--12--12--11--9--12--12--11--0~~-|
D-9--12--10--9---9--12--10--9---9--12--10--9---9--12--10--9---2~~-|
A-7--10----------7--10----------7--10----------7--10----------2~~-|
E-------------------------------------------------------------0~~-|

-1:02

1st Riff:
E--------------------------------------------|
B----------------5--------------1-1-1-1------|
G------------0-4---4-(4)~---2-4-----------2--|
D-!0-2-2-2-2----------------------------3----| (x2)
A--------------------------------------------|
E--------------------------------------------|

Fill: (very fast this bit,to be played under 2 seconds)
E-0-3p2p0-------------------------------------------0~~--|
B---------3p2p0-------3p2p0-------------------------0~~--|
G---------------3p2p0-------3p2p0-------3p2p0-------0~~--|
D---------------------------------3p2p0-------3p2p0-2~~--|
A---------------------------------------------------2~~--|
E---------------------------------------------------0~~--|

2nd Riff:(A)
E-------------3-----------------------------|
B-----------3---3-(3)^------3-4-4-4-4-------|
G---------3---------------5-----------5-5~--|
D-5-5-5-5-----------------------------------| (x2)
A-------------------------------------------|
E-------------------------------------------|

Fill: (pretty hard to hear this one!)
E--------------------------|
B--------------------------|
G-8p7p0-7p6p0-6p5p0-5p4p0--|
D--------------------------|
A--------------------------|
E--------------------------|

-1:31

2nd Riff:(B)

E------------------------------|
B---------------5---------5-5--|
G-----------0-4---4-(4)~--5-4--|
D-0-2-2-2-2--------------------|
A------------------------------|
E------------------------------|

E------------------------------------------------------------|
B--------13--12---------13--12---------13--12---------13--12-|
G-9--12--12--11--9--12--12--11--9--12--12--11--9--12--12--11-|
D-9--12--10--9---9--12--10--9---9--12--10--9---9--12--10--9--|
A-7--10----------7--10----------7--10----------7--10---------|
E------------------------------------------------------------|

-1:40

Pre Solo:
Em Gm
E---------------------------------------------------------------------|
B-------8------8-----8---8------------11----------11----------11----11|
G-----9--9-------9-----9-----------12----12----------12----------12---|
D---9------9-9-----9------------12-------------12-------12------------|
A-7--------------------------10-------------10-------------10---------|
E---------------------------------------------------------------------|
Reapeat this section 4 times and plam mute all except the last
G minor sequence.

-2:05

E-----------------------------------|
B--------13--12---------13--12------|
G-9--12--12--11--9--12--12--11--9---|
D-9--12--10--9---9--12--10--9---9---|
A-7--10----------7--10----------7---|
E-----------------------------------|

-2:10

Solo:
E--------------------------------------|
B-------0--0--0----------3---3-5-9-~7--|
G----------------------4---4-----------|
D-4^-4-4--2--0---4--5------------------|
A--------------------------------------|
E--------------------------------------|

E-12----12--12----12--12----12-----------------|
B-12h15-----12h15-----12h15----12-15-12-15-17--|
G----------------------------------------------|
D----------------------------------------------|
A----------------------------------------------|
E----------------------------------------------|

E-------------------------------------------------------|
B-15-15-13-12-13-12p13-10-10h12p10-7p10p7-6h8p6-5h75-5s-|
G-------------------------------------------------------|
D-------------------------------------------------------|
A-------------------------------------------------------|
E-------------------------------------------------------|

-2:24
(it gets into some seriously fast picking here)
E----------------------------10-10-11-11-13-13-10-10-11-11-13-13-|
B-12-10----10-10-11-11-13-13-------------------------------------|
G-12-10-12-------------------------------------------------------|
D----------------------------------------------------------------|
A----------------------------------------------------------------|
E----------------------------------------------------------------|

E-15-15-16-16-17-17-15^---------------------------------------13-|
B------------------------18-16-15----15-------------------13^----|
G---------------------------------17----17-15-17-15-14-12--------|
D----------------------------------------------------------------|
A----------------------------------------------------------------|
E----------------------------------------------------------------|

Go psycho with the strums and whammy bar!
E-----13~13~13~13~13~13~13~13~13~~---------|
B-13~-13~13~13~13~13~13~13~13~13~~---------|
G------------------------------------------|
D------------------------------------------|
A------------------------------------------|
E------------------------------------------|

-2:33
E-0-8-6-5---5---------------3p2p0-------3p2p0--|
B---------8---3s4-4-3-4-3-1-------3p2p0--------|
G----------------------------------------------|
D----------------------------------------------|
A----------------------------------------------|
E----------------------------------------------|
double picking aswell..
E-----------------------------------------------|
B-----------------------------------------------|
G-----------------------------------------------|
D-222222-444-555-7777-9999-7777-9999-10-10-10-10|
A-----------------------------------------------|
E-----------------------------------------------|

E--------------------------------------------------------|
B--------------------------------------------------------|
G--------------------------------------------------------|
D-999-10-10-10-10-12-12-12-12-10-10-10-10-12-12-12-12-10-|
A--------------------------------------------------------|
E--------------------------------------------------------|

E-----------------------------------------------------------|
B-----------------------------------------------------------|
G-999-11-11-11-12-12-12-14-14-14-16-16-16-14-14-14-17-17-17-|
D-----------------------------------------------------------|
A-----------------------------------------------------------|
E-----------------------------------------------------------|

E-------------------------------------19^--|
B-20-20-20-19-19-19-17-17-17----17----19^--|
G----------------------------19----19-19^--|
D------------------------------------------|
A------------------------------------------|
E------------------------------------------|

-2:50

E---0~~------------------------------------------|
B---0~~-----3^-5^--------------------------------|
G---0~~-0-0--------5-3-2-3-2---2-----------------|
D---2~~-2--------------------5---5-3-2-3-5-3-2---|
A---2~~------------------------------------------|
E-0----------------------------------------------|

E-------------------------------------------------------|
B---0--------0--------0--------0--------0--------0------|
G-0-4p0-0--0-4p0-0--0-4p0-0--0-4p0-0--0-4p0-0--0-4p0-0--|
D-------------------------------------------------------|
A-------------------------------------------------------|
E-------------------------------------------------------|

E-0-3p2p0-------------------------------------------------|
B---------3p2p0------------0------0~~---0~~---0~~----0~~--|
G---------------3p2p0--2s4-----4~~---4~~---4~~----4~~-----|
D---------------------------------------------------------|
A---------------------------------------------------------|
E---------------------------------------------------------|

E-------------------------------|
B------------------------sU-sD--|
G-3p2p0---3p2p0---3p2p0--sU-sD--|
D-------3-------3--------sU-sD--|
A-------------------------------|
E-------------------------------|

-3:03
(this next bit is way too sloppy to work out
but what he is playing is over this arpeggio.)
E-------------------------7-9-11-7-12-10-8-7-5---5h7p5---5--|
B------------------7-9-11-------------:--------8-------8----|
G----------7---7-9--------------------:---------------------|
D------7-9---9------------------------:---------------------|
A-7-10--------------------------------:---------------------|
E-------------------------------------:---------------------|

E-0-12p0-0-13p0-0-12p0-0-11p0-0-12p0-10p0-9p0-7p0-5p0---|
B-------------------------------------------------------|
G-------------------------------------------------------|
D-------------------------------------------------------|
A-------------------------------------------------------|
E-------------------------------------------------------|

E-13-13-(12)s15-(12)s17-(12)s19-(12)20--|
B---------------------------------------|
G---------------------------------------|
D---------------------------------------|
A---------------------------------------|
E---------------------------------------|

-3:16

E-12-15^-12-15^-12-15-12--------------------------------------------|
B-12-15^-12-15^-12-15-12--------------------------------------------|
G------------------------14-14-12----8-8-8-8--8-8-8-8--8-7-8^-8~-8~-|
D-------------------------------------------------------------------|
A-------------------------------------------------------------------|
E-------------------------------------------------------------------|
/pm.. /pm...

the rest is pretty hard as!! Not know how right this is..
This part is probably wrong but this is an outline of how
the solo ends.
-3:22
E------:-----------------------------------------------------|
B------:-----------------------------------------------------|
G-7-5-3:--0-3-3-0-0----0-3-3-0-0----0-3-3-0-0---0-3-3-0-0----|
D------:------------3------------3------------3-----------3--|
A------:-----------------------------------------------------|
E------:-----------------------------------------------------|
/ p a l m m u t e.............................
end with some type of thing down the pentatonic scale
(Its along this line...)
E-----------------------------------------------------------------0~~-|
B--------------3-5^-3-3h5p3---------------------------------------0~~-|
G-0-3-3-0-0-----------------5-3-3h5p3---3-------------------------0~~-|
D-----------3-------------------------5---5-3h5p3---3-------------2~~-|
A-------------------------------------------------5---3h5p3-------2~~-|
E-----------------------------------------------------------5-4-3-0~~-|
............

E------|
B------|
G------|
D--sD--|
A--sD--|
E--sD--|

Bass Solo

-3:49
1st Riff:
E--------------------------------------------|
B----------------5--------------1-1-1-1------|
G------------0-4---4-(4)~---2-4-----------2--|
D-!0-2-2-2-2----------------------------3----| (x2)
A--------------------------------------------|
E--------------------------------------------|

Fill:
E---------0~~----------*5~~------|
B---------0~~------*5~~----*5~~--|
G-5-4-2-0-0~~--*5~~--------------|
D---------2~~--------------------|
A---------2~~--------------------|
E---------0~~--------------------|

2nd Riff:(A)
E-------------3-----------------------------|
B-----------3---3-(3)^------3-4-4-4-4-------|
G---------3---------------5-----------5-5~--|
D-5-5-5-5-----------------------------------|
A-------------------------------------------|
E-------------------------------------------|

Fill:
E--------|
B-5^-4~--|
G--------|
D--------|
A--------|
E--------|

E-------------3-----------------------------|
B-----------3---3-(3)^------3-4-4-4-4-------|
G---------3---------------5-----------5-5~--|
D-5-5-5-5-----------------------------------|
A-------------------------------------------|
E-------------------------------------------|

Fill:
E-------------|
B-5--7--8-10--|
G-x--x--x-x---|
D-2--4--5-7---|
A-------------|
E-------------|

E-------------------------------|
B----------------5---------1-0--|
G------------0-4---4-(4)~-------|
D-!0-2-2-2-2--------------------|
A-------------------------------|
E-------------------------------|

E------------------------------------------------------------|
B--------13--12---------13--12---------13--12---------13--12-|
G-9--12--12--11--9--12--12--11--9--12--12--11--9--12--12--11-|
D-9--12--10--9---9--12--10--9---9--12--10--9---9--12--10--9--|
A-7--10----------7--10----------7--10----------7--10---------|
E------------------------------------------------------------|

E-----------------------------0~~--3ft-3~ft----|
B------------------1^-(1)~~---0~~--------------|
G-----------0-4-4-------------0~~--------------|
D-0-2-2-2-2-------------------2~~--------------|
A-----------------------------2~~--------------|
E-----------------------------0~~------------0-|. End.

=================================================================

GUITAR 2 (Rhythm) All to be strummed with a gallop type feel.

-0:20
E F
E------------------------------------------------|
B------------------------------------------------|
G------------------------------------------------|
D-2222222222222222222222-3333333333333333333333--|(x2)
A-2222222222222222222222-3333333333333333333333--|
E-0000000000000000000000-1111111111111111111111--|

E
E------|
B------|
G------|
D-2----|
A-2----|
E-0...-|

-0:36
G G#
E------------------------------------------------|
B------------------------------------------------|
G------------------------------------------------|
D-5555555555555555555555-6666666666666666666666--|(x2)
A-5555555555555555555555-6666666666666666666666--|
E-3333333333333333333333-4444444444444444444444--|

E
E------|
B------|
G------|
D-2----|
A-2----|
E-0...-|

Reapeat again once.

-2:11 (solo)
E F
E------------------------------------------------|
B------------------------------------------------|
G------------------------------------------------|
D-2222222222222222222222-3333333333333333333333--|(x2)
A-2222222222222222222222-3333333333333333333333--|
E-0000000000000000000000-1111111111111111111111--|

G G#
E------------------------------------------------|
B------------------------------------------------|
G------------------------------------------------|
D-5555555555555555555555-6666666666666666666666--|(x2)
A-5555555555555555555555-6666666666666666666666--|
E-3333333333333333333333-4444444444444444444444--|

E F
E------------------------------------------------|
B------------------------------------------------|
G------------------------------------------------|
D-2222222222222222222222-3333333333333333333333--|(x2)
A-2222222222222222222222-3333333333333333333333--|
E-0000000000000000000000-1111111111111111111111--|

G G#
E------------------------------------------------|
B------------------------------------------------|
G------------------------------------------------|
D-5555555555555555555555-6666666666666666666666--|(x2)
A-5555555555555555555555-6666666666666666666666--|
E-3333333333333333333333-4444444444444444444444--|

E F
E------------------------------------------------|
B------------------------------------------------|
G------------------------------------------------|
D-2222222222222222222222-3333333333333333333333--|(x2)
A-2222222222222222222222-3333333333333333333333--|
E-0000000000000000000000-1111111111111111111111--|

G G#
E------------------------------------------------|
B------------------------------------------------|
G------------------------------------------------|
D-5555555555555555555555-6666666666666666666666--|(x2)
A-5555555555555555555555-6666666666666666666666--|
E-3333333333333333333333-4444444444444444444444--|

E
E------|
B------|
G------|
D-2----|
A-2----|
E-0...-|

-3:49
E F
E------------------------------------------------|
B------------------------------------------------|
G------------------------------------------------|
D-2222222222222222222222-3333333333333333333333--|(x2)
A-2222222222222222222222-3333333333333333333333--|
E-0000000000000000000000-1111111111111111111111--|

E
E------|
B------|
G------|
D-2----|
A-2----|
E-0...-|

G G#
E------------------------------------------------|
B------------------------------------------------|
G------------------------------------------------|
D-5555555555555555555555-6666666666666666666666--|(x2)
A-5555555555555555555555-6666666666666666666666--|
E-3333333333333333333333-4444444444444444444444--|

E
E--------------------------|
B--------------------------|
G--------------------------|
D-2222222222222222222222-2-|
A-2222222222222222222222-2-|
E-0000000000000000000000-0-|

Log In to leave a comment

After registration we will return you to the same place
Comments
face-with-monocle
If you wait a bit, some comments may appear here...

Shhh...