The Afghan Whigs logo

Into The Light The Afghan Whigs

  • 0
  • Share
  • Transposing
    0
  • Font Size
The Afghan Whigs – Into The Light
Verse riff:
C G Fill1 Em7
[e------(3)-----------------------------------------------------
B-------1-------------------3----------------------------3-----
G-0--------0---0---------0----0-------------0---------0----0---repeat
D-2--------2---0------0---------0-----------2------2---------2-through
A-3--------3---2---2------------------------2---2--------------verse
E--------------3------------------2--3-2-3--0------------------]

Like this:
C G Fill1 Em
When the light has gone...
C G Fill1 Em
And the stillnes is shaken...
C G Fill1 Em
And the drug of your smile, has gone
C G Fill1 Em
And left me alone
C G Fill1 Em
I need it bad, I need it now, wont u come'n'me and give me some.
C G Fill1 Em
I need it sweet, baby please, wont u answer the phone

Chorus riff:
Fill2 Em C
[e------------------0--------------------------
B---------------0--0---1--1-------------------
G---------------0--0---0--0--Keep strumming---
D---------------2--2---2--2--one measure------
A-------0-2-----2------3--3-------------------
E--3-3-------3--0-----------------------------]

Fill2 Em C
Step into the light, Baby
Fill2 Em C
Just give me the word, and I will begin
Fill2 Em C (keep strumming)
Step into the light, Baby
C
And see the trouble i'm in

Post chorus riff:
C G
[e----0--------------------
B----1--------------------
G-0--0-0-0----------------four times
D-2----2-0---0h2p0--------
A-3----3-2---------2-0----
E--------3-------------3--]

Second verse:
C G Fill1 Em
Now the light has gone
C G Fill1 Em
My love is gone
C G Fill1 Em
The good times have gone
C G Fill1 Em
Awa--ay
C G Fill1 Em
I have to ask, I need to know was it ever love
C G Fill1 Em
I need it sweet, baby please, wont u come'n'me and give me some

Chorus and post chorus as above
End on C

Log In to leave a comment

After registration we will return you to the same place
Comments
face-with-monocle
If you wait a bit, some comments may appear here...

Shhh...