Tesla logo

Love Song Tesla

  • 0
  • Share
  • Transposing
    0
  • Font Size
Tesla – Love Song
This intro is finger picked.  You probably need tonload to get the rythym.

H= Hammer on
P= Pull off
/= Slide

D(sus4) A(sus4) B minor G
2---3--2h3p2p0-------------0----------------------------------
B---------------------2---3-----------3---------3-------0--2--3--
G--------------------------------------------4-------------------
D--0--------------------------------------4---------------------- Repeats 3x
A---------------------0---------------2--------------------------
E-------------------------------------------------------3--------

D(sus4) A(sus4) G A
2--3--2h3p2p0-----------0---------------------------------------------
B--------------------2--3-------3----2----5----3------3------2------2----
G---------------------------------------------------0---0---------2---2--
D--0----------------------------------------------0-------------2--------
A--------------------0----------2----0-----------------------0-----------
E-----------------------------------------4----3-------------------------

D/F# G D/F# E m D/F#

B---3-------------3----3-------0--2--3--------2--3----3/5--3--2------2-3--
G-------2h4p2p0------2---2-----------------2-----------------------2------
D---4-------------4-------------------------------------------------------
A
E------------------------------3-----------2----------0------------2------

G D/F# E m

B--0---2--3-------2--3----3/5--3--2------2---
G--------------2-----------------------------
D
A----------------------------------------0---
E--3-----------2----------0------------------

---------Bogolin--------(the CC)

Log In to leave a comment

After registration we will return you to the same place
Comments
face-with-monocle
If you wait a bit, some comments may appear here...

Shhh...