Terrorvision logo

American Tv Terrorvision

  • 0
  • Share
  • Transposing
    0
  • Font Size
Terrorvision – American Tv
Date: Sun, 26 Apr 1998 14:58:35 -0400
From: David Miles
Subject: t/terrorvisionrican_tv.crd

Group : Terrorvision
Song : American TV
Album : Formaldehyde
Witten By : Tony Wright & The rest of group
Publisher : EMI Total Vegas Recordings.
>From : Lewis Miles
Email : [email protected]

Chords : Am x|0|2|2|1|0
Em 0|2|2|0|0|0
G 3|5|5|4|3|3 -They use this G
F# 2|4|4|3|2|2 -They use this F
G5 3|5|5|x|x|x
A#5 6|8|8|x|x|x
F5 1|3|3|x|x|x
G#5 4|6|6|x|x|x

Intro : Am Em G F#

Verse :
Am Em
He wasn diseased with a twisted mind
Am Em
His hands his feet his elbows tied
Am Em G5 F#5
Sleeps in the day but in the night he cries

The bastard son of a travelling man
Concieved andn in a caravan
Lives where held andes out when he can

Bridge : G5 A#5
-x---x-x-x-x-x--- -------------------
B-x-x---x-x-x-x-x--- -------------------
G-x-x---x-x-x-x-x--- ------4------------ All the way through
D-5-5---5-5-5-5-8---x3----3---0-----4---- the bridge
A-5-5---5-5-5-5-8--- --0---------3---0--
E-3-3---3-3-3-3-6--- ----------0--------

Death of a rock star played by an actor
Got to make a film he died in a fast car
With lots ofze, drugs and sex
Make him up a demi invent all the rest
Like character John's been trying it on
To get his picture in the News
He took a leap from his pad
Same place that his dad
Choked on a viso blue

Chorus :
F5 G#5 A#5 D#5
-x-x-x-x-x-x-x-- -x-- -x-x--
B-x-x-x-x-x-x-x-x-- -x-- -x-x--
-x-x-x-x-x-x-x-- -x-- -x-x--
A-3-3-3-3-6-6-8-8--x3-13-x3-8-6--
D-3-3-3-3-6-6-8-8-- -13- -8-6--
E-1-1-1-1-4-4-6-6-- -11- -6-4--

This is the land of the free, tuning into 6.15
We'll always want but we'll never need (D#5) on American TV
Searching our liberty fight the fight to succeed
Living out the American dr(D#5) on American TV

Ie that you enjoy the !!!!!!

Lewis Miles from Basingstoke!!!!!!!!

Only the Best!!!!!!!!!!!!!!!!!!!!!!!

Southampton FC rule!!!!!!!!!!!!!!!!!

-----

Thank you

Log In to leave a comment

After registration we will return you to the same place
Comments
face-with-monocle
If you wait a bit, some comments may appear here...

Shhh...