Loading...
Sum 41 logo

Heart attack Sum 41

  • 0
  • Share
  • Transposing
    0
  • Font Size
Intro
Guitar 1
Play with light reverb or echo
[e--5--5---3--3---0--0---3--3----------
B--5--5---3--3---0--0---3--3----------
G--5--5---4--4---2--2---4--4---------- } X2
D-------------------------------------
A-------------------------------------
E-------------------------------------]
Play once then guitar 2 comes in
Guitar 2
[e-------------------------------------
B-------------------------------------
G----------4--4---2--2---4--4--------- } X1
D---7--7---5--5---2--2---5--5---------
A---7--7---5--5---2--2---5--5---------
E---5--5---3--3---0--0---3--3---------]

VERSE
Guitar 1
Play with light reverb or echo
[e--5--5---3--3---0--0---3--3----------
B--5--5---3--3---0--0---3--3----------
G--5--5---4--4---2--2---4--4---------- } X2
D-------------------------------------
A-------------------------------------
E-------------------------------------]
Guitar 2
[e-------------------------------------
B-------------------------------------
G----------4--4---2--2---4--4--------- } X2
D---7--7---5--5---2--2---5--5---------
A---7--7---5--5---2--2---5--5---------
E---5--5---3--3---0--0---3--3---------]

PRE-CHORUS 1
Guitar 2
With reverb and wah
[e-------------------------------------
B-------------------------------------
G----------5-7~-5--------------------- } X1
D---5h7-5~--------7-------------------
A-------------------------------------
E-------------------------------------]

CHORUS
Guitar 1
[e--------5--------3--------0--------3-
B-------5-5------3-3------0-0------3-3
G------------------------------------- } X4
D-------------------------------------
A-------------------------------------
E-------------------------------------]
Guitar 2
[e-------------------------------------
B-------------------------------------
G------------4--------2--------4------ } X4
D---7----7---5----5---2----2---5----5-
A---7---7-7--5---5-5--2---2-2--5---5-5
E---5--------3--------0--------3------]

PRE-CHORUS 2
Guitar 1
Play the [-7-] with fast up and down strokes,
If you have a tremello pedal use that [-5-]
With reverb
[e-------------------------------------
B-------------------------------------
G----------------------7-------------- } X1
D-----7777777777777777----------------
A-----5555555555555555----------------
E-------------------------------------]

BRIDGE
There is no guitar part in the bridge

PRE-CHORUS 3
Guitar 2
With reverb
[e-------------------------------------
B------5-let ring---------------------
G------------------------------------- } X1
D----7--------------------------------
A-------------------------------------
E--5----------------------------------]

PRE-SOLO
Guitar 1
[e-----------------------------------------
B-----------------------------------------
G-----------44444---22222---44444--------- } X2
D---77777---55555---22222---55555---------
A---77777---55555---22222---55555---------
E---55555---33333---00000---33333---------]
Guitar 2
Improvise something along the lines of PRE-CHORUS 1
After guitar 1 has strummed
The above through once

SOLO
Guitar 2
[e--------------------------------------------------
B------------------------------------5-------------
G----------5-------------7-------------------------
D--5h7-5-7----7--7-7-5h7---7-5h7-5-7---7---------5-
A----------------------------------------7-7-5h7---
E--------------------------------------------------
} X5
E--------------------------------------------------
B------------------------5-------------------------
G----------5-------------------------7-------------
D--5h7-5-7----7--7-7-5h7---7-5h7-5-7---7---------5-
A----------------------------------------5h7-5-7---
E--------------------------------------------------]
Guitar 1
After solo has been played X3 then start strumming
[e-----------------------------------------
B-----------------------------------------
G-----------44444---22222---44444--------- } X2
D---77777---55555---22222---55555---------
A---77777---55555---22222---55555---------
E---55555---33333---00000---33333---------]

OUTRO
Jerry does this differently when he plays live,
So play to fade, strum out or improvise something.

SONG ORDER
Intro
Verse
Pre-chorus 1
Chorus
Verse
Pre-chorus 2
Chorus
Bridge
Prepchorus 3
Chorus
Presolo
Solo
Outro

Log In to leave a comment

After registration we will return you to the same place
Comments
face-with-monocle
If you wait a bit, some comments may appear here...

Shhh...

Versions

Most Popular
You Might Like