Loading...
Sublime logo

What I Got Sublime

  • 0
  • Share
  • Transposing
    0
  • Font Size
Submitted by: Mark Davidsdon

This was really easy
It only took me a sec. Good luck!

E|----------------
B|-----3----------
G|-------2-------- Keep Repeating Through the begin,
D|--0------0------ until solo.
A|----------------
E|-----------3----

E|---------1-------------------
B|----1--3---3-1/3-----7--5--33
G|--2------------------7--5--44 First Part
D|-----------------------------
A|-----------------------------
E|-----------------------------

E|--------------10-------------------------
B|--------10-12----12--12-10-13-12---------
G|--11-12--------------------------12-12^--
D|-----------------------------------------
A|-----------------------------------------
E|-----------------------------------------

Ther you go all 4 u. ^i^

Log In to leave a comment

After registration we will return you to the same place
Comments
face-with-monocle
If you wait a bit, some comments may appear here...

Shhh...