Stratovarius logo

Twilight Symphony Stratovarius

  • 0
  • Share
  • Transposing
    0
  • Font Size
Stratovarius – Twilight Symphony
By Stratovarius Transcription Team - Twilight Symphony (4ths Dimension)-
(Niuton Filho, Brazil) Tune 1/2 down. Email us at: [email protected]
Intro:

E:-10h11p10p8-------------------------------------------------------10h11p10p|
B:-------------11--10--8--7--8--7--------------------------------------------|
G:---------------------------------8--7--5-----------------------------------|
D:------------------------------------------8--7--5--4--7--8--5--7-----------|
A:------------------------------------------------------5--6--3--5-----------|
E:---------------------------------------------------------------------------|

2 times Riff 1
E:8--------------------------------------------------------------------------|
B:---11--10--8--7--8--7--------------------------------------|---------------|
G:-----------------------8--7--5-----------------------------|--8~--8/10~-8--|
D:--------------------------------8--7--5--4--7--8--5--7--7--|---------------|
A:--------------------------------------------5--6--3--5--5--|--6~--6/8---6--|
E:---------------------------------------------------------------------------|

E:---------------------------------------------------------------------------|
B:------8~----8--------------------------------------------------------------|
G:--7~----------10~---8~---8----7----------------------------------6~--6--8-1|
D:------5~----5----------------------10~-10~---8----6~----6--8-10------------|
A:--5~-----------8----6~---6----5----------------------------------4~--4--6--|
E:------------------------------------8~--8----6----4~----4--6--8------------|

Riff 2
E:---------------------------------------------------------------------------|
B:------------------------------------|--------------------------------------|
G:0-----------------------------------|--------------------------------------|
D:-----5~--5--6--5--3--5--6--5--3--5--|--5---------3--5-------6--5-----3--5--|
A:8-----------------------------------|--3----6----1--3----6--4--3--6--1--3--|
E:--------------------------------------------4------------4--------4--------|
(_________________________)

E:---------------------------------------------------------------------------|
B:---------------------------------------------------------------------------|
G:---------------------------------------------------------------------------|
D:---6-----------------------------------------------------------------------|
A:6--4-----------------------------------8-8-8-8-10-10-10-10-11-11-11-11-12-1|
E:4-----8-8-8-8-10-10-10-10-11-11-11-11--------------------------------------|
(_____________________________________________________________________

Little Solo

E:-----------11--10--11--10--8--13--11--13--11--10--15--13--15--13--11--16--1|
B:---------|-----------------------------------------------------------------|
G:---------|-----------------------------------------------------------------|
D:---9-10~-|-----------------------------------------------------------------|
A:2--------|-----------------------------------------------------------------|
E:---------------------------------------------------------------------------|
________)

Verse 1 Verse 2
E:5--16--15--13--18--16--18--16--15--18b(20)~--------------------------------|
B:--------------------------------------------|-----------------nx|----------|
G:--------------------------------------------|-------------------|----------|
D:--------------------------------------------|-5----3----5----3--|----------|
A:--------------------------------------------|-3----1----3----1--|------nx--|
E:------------------------------------------------------------------|3-3-3-3-|
(_________

E:---------------------------------------------------------------------------|
B:--------------------|-Repeat-Riff-1-|-Repeat-Verse-1-|-Repeat-Verse-2-|-Rep|
G:--------------------|---------------|----------------|----------------|----|
D:--------------------|---------------|----------------|----------------|----|
A:----------nx--------|---------------|----------------|----------------|----|
E:3-3|-|4-4-4-4-4-4|---------------------------------------------------------|
__________________)

2nd Little Solo

E:----------------------------------------16--15--16--15--13-----------------|
B:eat-Riff-1-|-Classical-Keyboard-Riff-|----------------------16--15--16--15-|
G:-----------|-------------------------|-------------------------------------|
D:-----------|-------------------------|-------------------------------------|
A:-----------|-------------------------|-------------------------------------|
E:---------------------------------------------------------------------------|

E:---------------------------------------------------------------------------|
B:-13--15--13--15--13--12----------------------------------------------------|
G:-------------------------15--13--15--12--13--12--13--10--------------------|
D:---------------------------------------------------------13--12--13--10--12|
A:---------------------------------------------------------------------------|
E:---------------------------------------------------------------------------|

2nd guitar
E:---------------------------------------------------------------------------|
B:-----------------------------------------|---------------------------------|
G:-----------------------------------------|--------------12--13--15------12-|
D:--10--12--10--9--------------------------|--12--13--15--------------15-----|
A:-----------------11--10--11--10--8--10~--|---------------------------------|
E:---------------------------------------------------------------------------|

Guitar solo
E:-----------------13--15-----15b(17)-(17)(17)(17)(17)(17)(17)--16--15--12---|
B:---------13--15----------|------------------------------------------------1|
G:-13--15------------------|-------------------------------------------------|
D:-------------------------|-------------------------------------------------|
A:-------------------------|-------------------------------------------------|
E:---------------------------------------------------------------------------|

E:---------------------------------------------------------------------------|
B:6--14--12--14--12----------16--14--12--------------------------------------|
G:-------------------15--13--------------15--13--12--13--12------------------|
D:-----------------------------------------------------------14--13--11--13--|
A:---------------------------------------------------------------------------|
E:---------------------------------------------------------------------------|

E:---------------------------------------------------------------------------|
B:---------------------------------------------------------------------------|
G:-----------------------------10----------------------10--12--10------------|
D:11-------13--12--10--12--13------13--12--10--12--13--------------13--12--10|
A:----14~--------------------------------------------------------------------|
E:---------------------------------------------------------------------------|

E:----------------------------------11--13--15--13--11--------------16--15--1|
B:----------------------12--13--15----------------------15--13--12-----------|
G:----------10--12--13-------------------------------------------------------|
D:--12--13-------------------------------------------------------------------|
A:---------------------------------------------------------------------------|
E:---------------------------------------------------------------------------|

Riff w/Keyboard

E:3--------------18--16--15--------------22--20--18--22b(24)---15p11------11h|
B:---16--15--13--------------18--16--15----------------------|--------13-----|
G:-----------------------------------------------------------|---------------|
D:-----------------------------------------------------------|---------------|
A:-----------------------------------------------------------|---------------|
E:---------------------------------------------------------------------------|

E:13p11------11h15p11h16p11h15p11h16p11--13p10------10h13p10------10h13p10h15|
B:-------13-------------------------------------12------------12-------------|
G:---------------------------------------------------------------------------|
D:---------------------------------------------------------------------------|
A:---------------------------------------------------------------------------|
E:---------------------------------------------------------------------------|

Riff
2x

E:p10h13p10h15p10------------------------------------------------------------|
B:-----------------|---------------------------------------------------------|
G:-----------------|--------------------5~---5-------------------------------|
D:-----------------|--6~---8~---6--5~-----------8--6~---6--5--3~---5~---6~---|
A:-----------------|--------------------3~---3-------------------------------|
E:--------------------4~---6~---4--3~-----------6--4~---4--3--1~---3~---4~---|

Slow part o

E:---------------------------------------------------------------------------|
B:--------------------------------------------------------------|-----3------|
G:-------------5~---5-------------------------------------------|--------5---|
D:8~---6--5~-----------8--6~---6--5--3----------------4--7--5~--|-----------5|
A:-------------3~---3---------------------------3--6------------|--3---------|
E:6~---4--3~-----------6--4~---4--3--1----2--5-------------------------------|

F song

E:----------------3----------------------------------------------------------|
B:--3--------3h4-----4-------------3--------3--------3~-------6--------6-----|
G:-----5----------------5-------------4--------4-----------------5--------5--|
D:--------5----------------5-------------4--------4--------3--------3--------|
A:------------------------------2--------------------------------------------|
E:---------------------------------------------------------------------------|

Sl
E:------3--4--------------------------------3--4----------------3------------|
B:---6--------6--------6--------6--------6--------6----------------5-----|---|
G:---------------5--------5--------5-----------------5----------------4--|---|
D:3--------------------------3--------3-----------------3----------------|-13|
A:------------------4----------------------------------------2-----------|---|
E:---------------------------------------------------------------------------|

ow Solo
E:---------------------------------------------------------------------------|
B:---------------------------------------------------------------------------|
G:---------------------------------------------------------------------------|
D:~--15--17/20--18~--17--15--13--15~--13--15--18--17~--15--13--12--10~--10~--|
A:---------------------------------------------------------------------------|
E:---------------------------------------------------------------------------|

Lot of times
E:----------------------------------------|
B:------------------|---------------------|
G:12~--12b(14)-12~--|--Fade-out-----------|
D:------------------|---------------------|
A:------------------|---------------------|
E:----------------------------------------|

Log In to leave a comment

After registration we will return you to the same place
Comments
face-with-monocle
If you wait a bit, some comments may appear here...

Shhh...