Loading...
Stratovarius logo

Luminous Stratovarius

  • 0
  • Share
  • Transposing
    0
  • Font Size
Stratovarius – Luminous
Stratovarius - Luminous
Album: Elements pt.2
Author: Timo Tolkki
Tabber: Pibe
Tunning: 1/2 Step Down D# G# C# F# A# D#
For questions and corrections e-mail me at: [email protected]

||||Luminous||||

D#|------------||
A#|-------2----||
F#|-----4---2--||x 6
C#|---2--------||
G#|-0----------||
D#|------------||

D#|------------||
A#|-------3----||
F#|-----2------||x 2
C#|---0--------||
G#|------------||
D#|-3----------||

D#|-------5--0---||
A#|-----3------3-||
F#|---2----------||x 2
C#|-0------------||
G#|--------------||
D#|--------------||

D#|------------||
A#|-------2----||
F#|-----4---2--||x 4
C#|---2--------||
G#|-0----------||
D#|------------|| Drums enter

D#|------------||
A#|-------3----||
F#|-----2------||x 2
C#|---0--------||
G#|------------||
D#|-3----------||

D#|-------5--0---||
A#|-----3------3-||
F#|---2----------||x 2
C#|-0------------||
G#|--------------||
D#|--------------||

D#|------------||
A#|-------2----||
F#|-----4---2--||x 2
C#|---2--------||
G#|-0----------||
D#|------------||

D#|-------------------------------------------||
A#|-------------------------------------------||
F#|-------------------------------------------||
C#|-7---------7--------5---------5---------7--||
G#|-7---------7--------5---------5---------7--||
D#|-5---------5--------3---------3---------5--||
|_____Let Ring

D#|------------||
A#|-------2----||
F#|-----4---2--||x 2
C#|---2--------||
G#|-0----------||
D#|------------||

D#|------------||
A#|-------3----||
F#|-----2------||x 2
C#|---0--------||
G#|------------||
D#|-3----------||

D#|-------5--0---||
A#|-----3------3-||
F#|---2----------||x 2
C#|-0------------||
G#|--------------||
D#|--------------||

D#|------------||
A#|-------2----||
F#|-----4---2--||x 4
C#|---2--------||
G#|-0----------||
D#|------------||

D#|------------||
A#|-------3----||
F#|-----2------||x 2
C#|---0--------||
G#|------------||
D#|-3----------||

D#|-------5--0---||
A#|-----3------3-||
F#|---2----------||x 2
C#|-0------------||
G#|--------------||
D#|--------------||

D#|------------||
A#|-------2----||
F#|-----4---2--||x 2
C#|---2--------||
G#|-0----------||
D#|------------||

D#|-------------------------------------------||
A#|-------------------------------------------||
F#|-------------------------------------------||
C#|-7---------7--------5---------5---------7--||
G#|-7---------7--------5---------5---------7--||
D#|-5---------5--------3---------3---------5--||
|_____Let Ring

D#|------------||
A#|-------2----||
F#|-----4---2--||
C#|---2--------||
G#|-0----------||
D#|------------||

Solo
D#|----------------------------------------------------------------------||
A#|-------------------------------------------------------10/1210--8----||
F#|-2/42--0-----2/42--0----9--7-6-6-7-9-------6--7------------------9--||
C#|----------2------------2---------------7--7--------7------------------||
G#|----------------------------------------------------------------------||
D#|----------------------------------------------------------------------||

D#|-17/1917--15--------------------17-------------15-------------14-----||
A#|--------------17--17---15---14--------14---12--------12---11--------11||
F#|----------------------------------------------------------------------||
C#|----------------------------------------------------------------------||
G#|----------------------------------------------------------------------||
D#|----------------------------------------------------------------------||

D#|--------13---------12---||
A#|---10--------10---------||
F#|------------------------||
C#|------------------------||
G#|------------------------||
D#|------------------------||

D#|------------||
A#|-------2----||
F#|-----4---2--||Repeat about 10 times and then start to fade out.
C#|---2--------||
G#|-0----------||
D#|------------||

Log In to leave a comment

After registration we will return you to the same place
Comments
face-with-monocle
If you wait a bit, some comments may appear here...

Shhh...