Stratovarius logo

Glory Of The World Stratovarius

  • 0
  • Share
  • Transposing
    0
  • Font Size
Stratovarius – Glory Of The World
****************************************************************
* STRATOVARIUS - GLORY OF THE WORLD (From the album: INFINITE) *
****************************************************************
Music and Words By: Jens Johansson

Transcribed By: Niclas Buss ([email protected])
Added By Mikhailo
-----------------------------------------

Tune Down 1/2 step!

Intro
E----------------------------------------------------------------------------------|
B----------------------------------------------------------------------------------|
G--9---------10~---------------7---------9~------10------9----------10~-----------|
D--7----------7~---------------7---------7~-------7------7-----------7------------|
A-----0-0-0-0------0-0-0-0-0-0-----0-0-0------0-0-----0-0----0-0-0-0------0-0-0-0-0|
E----------------------------------------------------------------------------------|
pm......| pm..........| pm....| pm..| pm..| pm......| pm........|
_____________________ __________________________ ____________
|1. 3. |2. |4.
E--------------------|---------------------|--------------------------|------------|
B--------------------|---------------------|--------------------------|------------|
G----7---------------|--5--4-/-5--/--7---*|--/10--9-7---------------*|--/-10--9-7-|
D----7---------------|--3--3-/-3--/--5---*|-----------10-9-76------*|------------|
A-0-----0-0-0-0-0-0--|---------------------|--------------------8-7---|------------|
E--------------------|---------------------|--------------------------|------------|
..| pm..........| pm......|
_________________________
end Intro | Verse 1 x2 Bri
E-------------------------||-------------------------------------------------------|
B-------------------------||--------------------------------------------------|----|
G-------------------------||*------------------------------------------------*|----|
D-10-9-76----------------||*--------10-----7----------------10-----7--------*|----|
A----------8-7------------||----7-----8-----5-----5-----7-----8-----5-----2---|--3-|
E-----------------~~----||----5-----------------3-----5-----------------0------1-|
pm......|

dge Chorus (1)
E----------------------------------------------------------------------------------|
B-----------------------------------------------------|----------------------------|
G-----------------------------------------------------|----------------------------|
D----------------7--------------------------7----/9---|---------------------7----8-|
A---------2--3---5----------------2----7----5----/7---|---3----------2--3---5----5-|
E--/3--5-----------------2---4-------5---------/7-------1---/3--5----------------|

E----------------------------------------------------------------------------------|
B----------------------------------------------------------------------------------|
G----------------------------------------------------------------------------------|
D--5----------5------5-----5----------5------5---------3---5---/10--10---7----8--|
A--3-3-3-3-3--3--3-3-3-3-3-3-3-3-3-3--3--3-3-3----3---1---3---/8---7----5----5--|
E--------------------------------------------------1------------------------------|
pm......| pm..| pm..| pm......| pm..|

E----------------------------------------------------------------------------------|
B-------------------------------------------------------------|--------------------|
G-------------------------------------------------------------|*--9----------10~---|
D-5----------5------5-----5----------5------5---------3---5~--|*--7-----------7~---|
A-3-3-3-3-3--3--3-3-3-3-3-3-3-3-3-3--3--3-3-3----3---1---3~--|------0-0-0-0------0|
E------------------------------------------------1--------------------------------|
pm......| pm..| pm..| pm......| pm..| pm......| pm.

E----------------------------------------------------------------------------------|
B----------------------------------------------------------------------------------|
G------------7---------9~------10-------9----------10~---------------7-------------|
D------------7---------7~-------7-------7-----------7~---------------7-------------|
A-0-0-0-0-0-----0-0-0------0-0-----0-0-----0-0-0-0------0-0-0-0-0-0-----0-0-0-0-0-0|
E----------------------------------------------------------------------------------|
..........| pm....| pm..| pm..| pm......| pm..........| pm..........|
____________________ ________________________________
|1. |2. | Chorus (2)
E|--------------------|--------------------------------|---------------------------|
B|--------------------|--------------------------------|-------------|-------------|
G|--5--4-/-5--/-7---*|--/10--9-7----------------------|---Verse-2---|-------------|
D|--3--3-/-3--/-5---*|-----------10-9-76-------------|-------------|-------------|
A|--------------------|--------------------8-7---------|-------------|--3----------|
E|--------------------|--------------------------~~--|----------------1---/3--5--|
pm......|

E----------------------------------------------------------------------------------|
B----------------------------------------------------------------------------------|
G----------------------------------------------------------------------------------|
D---------7----8-----5----------5------5-----5----------5------5---------3---5---/|
A--2--3---5----5-----3-3-3-3-3--3--3-3-3-3-3-3-3-3-3-3--3--3-3-3----3---1---3---/|
E--------------------------------------------------------------------1------------|
pm......| pm..| pm..| pm......| pm..|
Two Gtrs.
E----------------------------------------------------------------------------------|
B-----------------------------------------------------------------------------6---5|
G-----------------------------------------------------------------------------5---5|
D10--10--7----8-----5----------5------5-----5----------5------5---------3----5----|
A8---7---5----5-----3-3-3-3-3--3--3-3-3-3-3-3-3-3-3-3--3--3-3-3----3---1----3--5|
E-------------------------------------------------------------------1-----------3|
pm......| pm..| pm..| pm......| pm..|

E----------------------------------------------------------------------------------|
B-5~---8---7--7~----|--------------------------------------------------------------|
G-5~---7---7--7~----|--------------------------------------------------------------|
D-5----7------7~----|-------------------------------------------------2------------|
A-3----5--7--5~----|--------------3---5------5---3-2-----2---3--5-------2--------|
E---------5-----------3---5--6-----------5-----------5---------------------0--/2-|

Guitar Solo
E----------------------------------------------------------------------------------|
B-----------|--/12~~--13~~--12~~--10~~--12~~--10~~---------------------------------|
G-----------|---------------------------------------12~~--11~~--9~~--11~~--9~~--8~~|
D-----4~~---|----------------------------------------------------------------------|
A--4--------|----------------------------------------------------------------------|
E----------------------------------------------------------------------------------|

E----------------------------------/11-12-14-15-14-12-----19~-b(20)r19~~--/20-19-17|
B------------------------/10-12-13--------------------16---------------------------|
G--------------/11-12-14-----------------------------------------------------------|
D--10~~--9~~-----------------------------------------------------------------------|
A----------------------------------------------------------------------------------|
E----------------------------------------------------------------------------------|

E----------20-19-17----------------------------------------------------------------|
B-20-19-17----------20-19-17-20-19-17----------20-19-17----------------------------|
G-------------------------------------20-17-16----------20-17-16-/17-16-14---------|
D--------------------------------------------------------------------------17-16-17|
A----------------------------------------------------------------------------------|
E----------------------------------------------------------------------------------|

E----------------------------------------------------------------------------15-17-|
B-------------------------------------------16-17-19-17-16----------16-17-19-------|
G-14-16-17-16-17----------14-16-17-14-16-17----------------17-16-17----------------|
D----------------17-16-17----------------------------------------------------------|
A----------------------------------------------------------------------------------|
E----------------------------------------------------------------------------------|

E-19-17-15----------------15-17-15----------------15-17-19~~--~-------------------|
B----------19-17-16-17-19----------19-17-16-17-19-----------------|----------------|
G-----------------------------------------------------------------|--Keyboard-Solo-|
D-----------------------------------------------------------------|----------------|
A-----------------------------------------------------------------|----------------|
E----------------------------------------------------------------------------------|

E----------------------------------------------------------------------------------|
B----|-------------------|--------------|------------------------------------------|
G-1--|--Keyboard-solo-2--|--Chorus-(1)--|------------------------------------------|
D----|-------------------|--------------|------------------10----------------------|
A----|-------------------|--------------|--3----------7----8----5----------5------|
E------------------------------------------1-----4--5---------3-3-3-3-3--3--3-3-|
pm......| pm..|

E----------------------------------------------------------------------------------|
B----------------------------------------------------------------------------------|
G----------------------------------------------------------5-----------------------|
D-----------------------------/5--------------5---4---2----3-----------------------|
A-5-----5----------5------5---/3----3----5----3---2---0--------5----------5------5|
E-3-3-3-3-3-3-3-3--3--3-3-3---------1----3---------------------3-3-3-3-3--3--3-3-3|
pm..| pm......| pm..| pm......| pm..|

E----------------------------------------------------------------------------------|
B-----------------------------------------------|----------------------------------|
G-----------------------------------------------|*--9----------10~---------------7-|
D---------------------------/5------------------|*--7-----------7~---------------7-|
A-----5----------5------5---/3----3----5---5~---|------0-0-0-0------0-0-0-0-0-0----|
E-3-3-3-3-3-3-3--3--3-3-3---------1----3---3~--------------------------------------|
pm..| pm......| pm..| pm......| pm..........|
__________
|1.
E-----------------------------------------------------------------------|----------|
B-----------------------------------------------------------------------|----------|
G---------9~------10-------9----------10~---------------7---------------|--5--4-/-|
D---------7~-------7-------7-----------7~---------------7---------------|--3--3-/-|
A--0-0-0------0-0-----0-0-----0-0-0-0------0-0-0-0-0-0-----0-0-0-0-0-0--|----------|
E-----------------------------------------------------------------------|----------|
pm....| pm..| pm..| pm......| pm..........| pm............|
___________ ______________________________________________________________________
|2.
E-----------|----------------------------------------------------------------------|
B-----------|----------------------------------------------------------------------|
G-5--/-7---*|--/-10--9-7---------------/10--9-7----------------/10-9-7----------/7-|
D-3--/-5---*|------------10-9-76/7~~-----------10-9-76/7~~-----------10-9-76----|
A-----------|----------------------------------------------------------------------|
E-----------|----------------------------------------------------------------------|
pm....| pm....| pm........
__________________________
|
E--------------------------||
B--------------------------||
G--------------------------|| end
D-10-9-7-10-9-76/7~~-----||
A--------------------------||
E--------------------------||
...............|

--------------------------------------------------------------------------------------

Rhythm Guitar during Keyboard Solo 1
E----------------------------------------------------------------------------------|
B----------------------------------------------------------------------------------|
G--7-------------------------------------------------------------/7----------------|
D-----0-0-0-0-0-0-0-0-0-0-0-0-0-3p0-2p0-3p0-5p0-7p0-8p0-9p0-10p0-----0-0-0-0-0-0-0-|
A----------------------------------------------------------------------------------|
E----------------------------------------------------------------------------------|
pm.........................................................| pm.............

E----------------------------------------------------------------------------------|
B----------------------------------------------------------------------------------|
G----------------------------------------------/7----------------------------------|
D-0-0-0-0-0-0-3p0-2p0-3p0-5p0-7p0-8p0-9p0-10p0-----0-0-0-0-0-0-0-0-0-0-0-0-0-3p0-2p|
A----------------------------------------------------------------------------------|
E----------------------------------------------------------------------------------|
.............................................| pm...............................

E----------------------------------------------------------------------------------|
B----------------------------------------------------------------------------------|
G----------------------------/7----------------------------------------------------|
D0-3p0-5p0-7p0-8p0-9p0-10p0-----0-0-0-0-0-0-0-0-0-0-0-0-0-3p0-2p0-3p0-5p0-7p0-8p0-9|
A----------------------------------------------------------------------------------|
E----------------------------------------------------------------------------------|
..........................| pm..................................................

E-------------||
B-------------||
G-------------|| end
Dp0-10p0-----||
A-------------||
E-------------||
.......|

Rhythm Guitar during Keyboard Solo 2
E----------------------------------------------------------||
B----------------------------------------------------------||
G----------------------------------------------------------|| end
D--------------------7-----------------------7----/9~~-----||
A--3----------2--3---5--------------2---7----5----/7~~-----||
E--1---/3--5----------------2--4------5---------/7~~-----||

--------------------------------------------------------------------------------------

=======================
=TABLATURE EXPLANATION=
=======================

A.H. = Artificial Harmonic

= Natural Harmonic

Pm..| = Palm mute

B = hammer on

P = pull off

/ = slide up

= slide down

~ = Vibrato

B() = Bend

X = Pick Slide

--------

---12--- = Tremolo pick
----/---
----/---
----/---

---.---
--12--- = Staccato
-------
-------
-------

| |
| |
|* *| = repeat from * to *
|* *|
| |

Log In to leave a comment

After registration we will return you to the same place
Comments
face-with-monocle
If you wait a bit, some comments may appear here...

Shhh...