Loading...
Stratovarius logo

Before The Winter Stratovarius

  • 0
  • Share
  • Transposing
    0
  • Font Size


Before The Winter
by Stratovarius
from Visions
-------------------

Tabbed by: Fredrik Olsson
E-mail: [email protected]

Intro:
Accoustic guitar
E:------14-15-17-15-14---------14-15-17-15-14----------14-15-17-15-14-----19-17-19-15-17-14-15-
B:---17----------------17---17----------------17---17----------------17------------------------
G:--------------------------------------------------------------------------------------------- x4
D:-14---------------------14-------------------------------------------------------------------
A:-----------------------------------------------15---------------------15---------------------
E:---------------------------------------------------------------------------------------------

Before the summer turns to winter..
E:------14-15-17-15-14---------14-15-17-15-14----------14-15-17-15-14-----19-17-19-15-17-14-15-
B:---17----------------17---17----------------17---17----------------17------------------------
G:--------------------------------------------------------------------------------------------- x3
D:-14---------------------14-------------------------------------------------------------------
A:-----------------------------------------------15---------------------15---------------------
E:---------------------------------------------------------------------------------------------

E:----------14-15-14----------------14-15-14----------19-17-19-15-19-14-19-----
B:----15-17----------17-15----15-17----------17-15-------------------------17--
G:-----------------------------------------------------------------------------
D:-------------------------------------------------14--------------------------
A:-17----------------------17--------------------------------------------------
E:-----------------------------------------------------------------------------

But I'll be back before the summer..
E:------14-15-17-15-14---------14-15-17-15-14----------14-15-17-15-14-----19-17-19-15-17-14-15-
B:---17----------------17---17----------------17---17----------------17------------------------
G:--------------------------------------------------------------------------------------------- x3
D:-14---------------------14-------------------------------------------------------------------
A:-----------------------------------------------15---------------------15---------------------
E:---------------------------------------------------------------------------------------------

E:----------14-15-14----------------14-15-14----------19-17-19-15-19-14-19-----
B:----15-17----------17-15----15-17----------17-15-------------------------17--
G:-----------------------------------------------------------------------------
D:-------------------------------------------------14--------------------------
A:-17----------------------17--------------------------------------------------
E:-----------------------------------------------------------------------------

Chorus
The path to home.. ends with this the 2nd time
E:---------------------------------------- e:------------
B:---------------------------------------- B:------------
G:---------------------------7------------ x2 G:--------2---
D:-7--5-3---5-----------3--2-7---2---5--7- D:-7--2---2---
A:-7--5-3---5--0-2-3----3--2-5---2---5--7- A:-7--2---0---
E:-5--3-1---3--------0--1--0-----0---3--5- E:-5--0-------

Slow part with flutes and piano

Flute solo for guitar
E:-13-12---13-12------------13-12---17-12----12------------
B:----------------15-13-12----------------13-----15-13-12--
G:---------------------------------------------------------
D:---------------------------------------------------------
A:---------------------------------------------------------
E:---------------------------------------------------------

E:-13-12--------12-13--12-----------------13-12-------------------12-----
B:--------13-15-----------15-13-12--13-15-------15-13-12----12-13----15--
G:-------------------------------------------------------14--------------
D:-----------------------------------------------------------------------
A:-----------------------------------------------------------------------
E:-----------------------------------------------------------------------

E:-------------13--12----12---------------
B:-13-12--------------15-----15-13-12-----
G:-------14-13------------------------14--
D:----------------------------------------
A:----------------------------------------
E:----------------------------------------

Solo
Rythm guitar
E:---------------------------------------------
B:---------------------------------------------
G:--------7---------------------7--------------
D:-3---2--7---2-----7--5--3--2--7---2---6--7---
A:-3---2--5---2-----7--5--3--2--5---2---6--7---
E:-1---0------0---4-5--3--1--0------0---4--5---

Before the summer turns to winter..
E:------14-15-17-15-14---------14-15-17-15-14----------14-15-17-15-14-----19-17-19-15-17-14-15-
B:---17----------------17---17----------------17---17----------------17------------------------
G:--------------------------------------------------------------------------------------------- x3
D:-14---------------------14-------------------------------------------------------------------
A:-----------------------------------------------15---------------------15---------------------
E:---------------------------------------------------------------------------------------------

E:----------14-15-14----------------14-15-14----------19-17-19-15-19-14-19-----
B:----15-17----------17-15----15-17----------17-15-------------------------17--
G:-----------------------------------------------------------------------------
D:-------------------------------------------------14--------------------------
A:-17----------------------17--------------------------------------------------
E:-----------------------------------------------------------------------------

Chorus
The path to home.. ends with this the 4th time
E:---------------------------------------- e:------------
B:---------------------------------------- B:------------
G:---------------------------7------------ x4 G:--------2---
D:-7--5-3---5-----------3--2-7---2---5--7- D:-7--2---2---
A:-7--5-3---5--0-2-3----3--2-5---2---5--7- A:-7--2---0---
E:-5--3-1---3--------0--1--0-----0---3--5- E:-5--0-------

E:------14-15-17-15-14---------14-15-17-15-14----------14-15-17-15-14-----19-17-19-15-17-14-15-
B:---17----------------17---17----------------17---17----------------17------------------------
G:---------------------------------------------------------------------------------------------
D:-14---------------------14-------------------------------------------------------------------
A:-----------------------------------------------15---------------------15---------------------
E:---------------------------------------------------------------------------------------------

Fade out...

Log In to leave a comment

After registration we will return you to the same place
Comments
face-with-monocle
If you wait a bit, some comments may appear here...

Shhh...

Most Popular
You Might Like