Stranglers logo

Goodbye Toulouse Stranglers

  • 0
  • Share
  • Transposing
    0
  • Font Size
Stranglers – Goodbye Toulouse
Pattern A
----------

G +--------------+--------------+--------------+--------------+
D |--------------|--------------|--------------|--------------|
A |--------------|--------------|--------------|--------------|
E +-0-4-5-7-5-4--+-0-4-5-7-5-4--+-0-4-5-7-5-4--+-0-4-5-7-5-4--+

Pattern B
----------

G +----------------+----------------+----------------+----------------+
D |----------------|----------------|----------------|----------------|
A |----------------|----------------|----------------|---4-6-7-6-4----|
E +-0-4-5-7-5-4----+-0-4-5-7-5-4----+-0-4-5-7-5-4----+-7--------------+

G +-------------+-------------+-------------+-------------+-------------|
D |---4-5-7-5-4-|---6-7-9-7-6-|---3-4-6-4-3-|---1-2-4-2-1-|---1-2-4-2-1-|
A |-5-----------|-7-----------|-4-----------|-2-----------|-2-----------|
E +-------------+-------------+-------------+-------------+-------------|

Pattern C
----------

G +----------------+----------------+----------------+----------------+
D |-------4-2------|-------6-4------|-------7-5------|-------9-7------|
A |-----------4----|-----------6----|-----------7----|-----------9----|
E +-2-2-2----------+-4-4-4----------+-5-5-5----------+-7-7-7----------+

Pattern D
---------

G +---------+----------+---------+----------+---------+
D |---------|----------|---------|----------|---------|
A |--5-5-5--|--0-0-0-0-|--5-5-5--|--0-0-0-0-|--5-6-7--|
E +---------+-0-0-0-0--+---------+-0-0-0-0--+---------+

Intro Verse1 Verse2 Break Verse3 Ending

A ABBC ABBC D BBC BBC D ABBC CCCD

Log In to leave a comment

After registration we will return you to the same place
Comments
face-with-monocle
If you wait a bit, some comments may appear here...

Shhh...