Loading...
Story Of The Year logo

Until The Day I Die Story Of The Year

  • 0
  • Share
  • Transposing
    0
  • Font Size
Www.storyoftheyear.net
Hey guys story of the year is a sick song n this is jus 1 of the amazin songs
From there new cd page avenue. got ne corrections send em 2 me at [email protected]
----------------------------------------------------------------------------
UNTIL THE DAY DIE - STORY OF THE YEAR
----------------------------------------------------------------------------
Tuning:d
Intro
E|---------------------------------------------|
B|---------10-------------------10-------------|
G|-----7------7---7-------7---7----7---7-------|
D|-9-9---9------9-----------9--------9---------|
A|---------------------------------------------|
D|---------------------------------------------|

E|------------------------------------------------|
B|------------------------------------------------|
G|------------------------------------------------|
D|-121212-121212--1111-111111--777-777--77-777----|
A|--9-9-9--9-9-9---9-9--9-9-9--555-555--55-555----|
D|--9-9-9--9-9-9---9-9--9-9-9--555-555--55-555----|

Verse

Guitar 1 plays intro
Guitar 2-
E|---------------------------------------------|
B|---------------------------------------------|
G|---------------------77777777----------------|
D|-99999999--55555555--77777777--77777777------|
A|-99999999--55555555--55555555--77777777------|
D|-99999999--55555555------------77777777------|

Chorus*CHORUS* (1:10-1:29)
E|------------------------------------------------------|
B|------------------------------------------------------|
G|------------------------------------------------------|
D|-5-5-5--7-7-7--1212121212121212-1111111111111111------|
A|-5-5-5--7-7-7---9-9-9-9-9-9-9-9--9-9-9-9-9-9-9-9------|
D|-5-5-5--7-7-7---9-9-9-9-9-9-9-9--9-9-9-9-9-9-9-9------|

Thats basically it 4 most of the song but the las 3 chords are

E|------------------------|
B|------------------------|
G|------------------------|
D|-9-9---7-7---5-5~~------|
A|-9-9---7-7---5-5~~------|
D|-9-9---7-7---5-5~~------

Have fun got any corrections lemmie kno n lets get up some more soty tabs l8er guys

Log In to leave a comment

After registration we will return you to the same place
Comments
face-with-monocle
If you wait a bit, some comments may appear here...

Shhh...