Story Of The Year logo

Until The Day I Die Story Of The Year

  • 0
  • Share
  • Transposing
    0
  • Font Size
Story Of The Year – Until The Day I Die
Artist:Story of the year
Song:Until the day i die
Tuning: Drop D

This is 100% correct! If u can find any mistakes E-mail me:[email protected]

(Guitar1)Intro:
E|-------------------------------------------------------------------------|
B|-------------------------------------------------------------------------|
G|--------------14------------------------14--------------Play-------------|
D|-----12----12----12----12------12----12----12----12-----These------------|
A|--14----14----------14------------14----------14--------9-times----------|
D|-------------------------------------------------------------------------|
PM.............. ....................... ..........

(Guitar2)Intro:!Play these chords after guitar1 played intro twice!
until the day I die~~~~~I spill my heart for u~~~~
E|--0--0-0--0--0--0~~---0-0---0--0-0--0--0-0--0--0-------------------------|
B|--1--1-1--0--0--1~~---1-0---1--1-1--0--0-1--1--0------Play these twice---|
G|--2--2-2--0--0--0~~---0-0---2--2-2--0--0-0--0--0-------------------------|
D|--3--3-3--2--2--2~~---2-2---3--3-3--2--2-2--2--2-------------------------|
A|--0--0-0--2--2--3~~---3-2---0--0-0--2--2-3--3--2-------------------------|
D|--0--0-0--0--0--0~~---0-0---0--0-0--0--0-0--0--0-------------------------|

Before Verse:
Both Guitar
E|-------------------------------------------------------------------------|
B|-------------------------------------------------------------------------|
G|-------------------------------------------------------------------------|
D|--121212-121212-1111-111111-777-777-77-777-------Play these tiwce--------|
A|---9-9-9--9-9-9--9-9--9-9-9-555-555-55-555-------------------------------|
D|---9-9-9--9-9-9--9-9--9-9-9-555-555-55-555-------------------------------|

Verse1:
Guitar1 plays intro without stoping
Guitar2 play these chords
E|----------------------------------------play-these-chords-after-guitar1---
B|----------------------------------------played-intro-four-times-then-stop-
G|---------------------77777777-----------and-let-G1(Guitar1)play-intro-once
D|-99999999--55555555--77777777--77777777-then-G2-play-these-chords-twice---
A|-99999999--55555555--55555555--77777777-again-----------------------------
D|-99999999--55555555------------77777777-----------------------------------
PM........................................let go Pm for the last two chords
when playing the last time!

Chours:
Both Guitar
E|---------------------------------------------------|---------------------|
B|---------------------------------------------------|---------------------|
G|---------------------------------------------------|---------------------|
D|-555--777--121212111111--Play-three-times-then-end-|--555--777-----------|
A|-555--777---9-9-9-9-9-9--------with-this-----------|--555--777-----------|
D|-555--777---9-9-9-9-9-9----------------------------|--555--777-----------|

Verse2:
Both
E|-------------------------------------------------------------------------|
B|-------------------------------------------------------------------------|
G|---------------------77777777--------------------------------------------|
D|-99999999--55555555--77777777--77777777-----Play-these-twice-------------|
A|-99999999--55555555--55555555--77777777-----then-play-it-all-------------|
D|-99999999--55555555------------77777777-----PM-Twice---------------------|
PM.... ... ... ... ... ... ... ...

That's Basically what the song plays!Have Fun

Log In to leave a comment

After registration we will return you to the same place
Comments
face-with-monocle
If you wait a bit, some comments may appear here...

Shhh...