Loading...
Stooges logo

I Wanna Be Your Dog Stooges

  • 0
  • Share
  • Transposing
    0
  • Font Size

I wanna be your dog - The stooges
-------------------------------------------------------------------------------

Tabbed by:matt herbert
Email:[email protected]

Tuning:standard

E|---------------------------------------------------------------------------|
B|---------------------------------------------------------------------------|
G|------------9--------------------------------------------------------------|
D|-2----------9----x8--------------------------------------------------------|
A|-2--x7------7--------------------------------------------------------------|
E|-0-------------------------------------------------------------------------|

Verse
E|---------------------------------------------------------------------------|
B|---------------------------------------------------------------------------|
G|---------------------------------------------------------------------------|
D|--12-12-12-12-11-11-11-11--9-9-9-9-9-9-------------------------------------|
A|--10-10-10-10-9--9--9--9---7-7-7-7-7-7-------------------------------------|
E|---------------------------------------------------------------------------|

The chorus is the same then its this:
E|---------------------------------------------------------------------------|
B|---------------------------------------------------------------------------|
G|---------------------------------------------------------------------------|
D|--12-12-12-9-9-9----------------------------9---x15------------------------|
A|--10-10-10-7-7-7---12-12-12-9-9-9-10--x19---7------------------------------|
E|-------------------10-10-10-7-7-7-8----------------------------------------|

Thats is its just the same as the bass tab but i thought i would do it anyway
==================================================

Log In to leave a comment

After registration we will return you to the same place
Comments
face-with-monocle
If you wait a bit, some comments may appear here...

Shhh...

Most Popular