Loading...
  • 0
  • Share
  • Transposing
    0
  • Font Size
Author/Artist: stone temple pilots
Title: sin
Album: core
Transcribed by: Saverain
Email: [email protected]

V strum down
^ strum up

You'll have to find the lyrics somewhere else. I are not to good words

I have the intro verse and chorus and second interlude but I
Could not figure out the first interlude I guess you can use the cords in
The intro for the first interlude. Also, I think it sounds better when you
Strum it to the far right of the guitar.

-|-0------0--0-0-0-----0--0-----------0------0--0-0-0-----0--0-|-------|------
-|-0--0-0-0--0-0-0--0--0--0--------0--0--0-0-0--0-0-0--0--0--0-|-------|------
-|-3--3-3-3--3-3-3--3--3--1--------3--3--3-3-3--3-3-3--3--3--1-|-------|------
-|-2-------------------2--2--------2--2-------------------2--2-|-------|------
-|-2----------------------2--------2--2----------------------2-|-9--2-|------
-|-0-------------------------------0--0------------------------|-------|------
intro v ^ v ^ v ^ v v v ^ v

-|---------------------------|------------------------------------------------
-|-0-0-0-0--x----------------|------------------------------------------------
-|-3-3-3-3--x-1-1-1-1--x-1-1-|------------------------------------------------
-|-2-2-2-2--x-2-2-2-2--x-2-2-|------------------------------------------------
-|-2-2-2-2--x-2-2-2-2--x-2-2-|------------------------------------------------
-|-0-0-0-0--x-0-0-0-0--x-0-0-|------------------------------------------------
verse ^ v ^ v ^ ^ v ^

-|--------------------------------|-------------------------------------------
-|------0--0--0-0--0--0-----------|-------------------------------------------
-|----4-2--2--2-2--1--1-4-----4---|-------------------------------------------
-|-5--5-2--2--2-2--2--2-5--5--5-5-|-------------------------------------------
-|-5--5-0--0--0-0--2--2-5--5--5-5-|-------------------------------------------
-|-3--3-0--0--0-0--0--0-3--3--3-3-|-------------------------------------------
chor v ^ ^ v ^ v v ^ ^ v ^

-|-3-|-3---3--3-------3------3---3--3-------3-------3----5-5-5-5-5--3-3--3-3--
-|-3-|---3-3----3---3-3-3------3-3----3---3-3-3-------3--0-1-0-5------3----3--
-|-0-|------------0-------0-------------0-------0-----------------------------
-|---|------------------------------------------------------------------------
-|---|------------------------------------------------------------------------
-|---|------------------------------------------------------------------------
sec inter ^ v ^ ^ v ^ v ^ v ^ ^ v v v v v ^ ^ v

-3-3---3-3-----|----------|---------------------------------------------------
---3---3---3---|----------|---------------------------------------------------
-----0-------0-|----------|---------------------------------------------------
---------------|----------|---------------------------------------------------
---------------|----------|---------------------------------------------------
---------------|----------|---------------------------------------------------
solo

Log In to leave a comment

After registration we will return you to the same place
Comments
face-with-monocle
If you wait a bit, some comments may appear here...

Shhh...

Versions

Most Popular
You Might Like