• 0
  • Share
  • Font Size
    15
Stone Temple Pilots – No Memory
Band: stone temple pilots
Song: no memory
Tabber: pants(fingah_leven_chic@hotmail.com)

I know you people are probably getting sick of me but i dont care! ^_^

Normal tuning (low to hi EADGbe)

E|------------------------------------------------------------
B|--------0h1------------1--------------2h3-------------------
G|------2-----2--------0---0---------4------4---------4-------
D|----2----------2---2--------2---4-----------------4----4----
A|--0--------------3------------2----------------5---------5--
E|---------------------------------------------3--------------

E|----------------------------------------------------
B|--------------------------------------------3--1--0-
G|--------2-------------7--------------0------0--2--0-
D|------2---2---------7---7----------2--------2--0--2-
A|----3-------3----8--------8------2----------0--0--2-
E|--1------------6--------------0-------------------0-

And repeat as many times as required or desired. have a wonderful day. ^_^

Log In to leave a comment

After registration we will return you to the same place
Comments
face-with-monocle
If you wait a bit, some comments may appear here...

Shhh...