Loading...
Stone Temple Pilots logo

Interstate Love Song Stone Temple Pilots

  • 0
  • Share
  • Transposing
    0
  • Font Size
Band: stone temple pilots
Song: interstate love song
Album: purple

Intro chords and chorus
E-4----0----0----4----4----5--0~--
B-5----0----0----4----4----5--0~--
G-6----1----2----6----5----6--1~--
D-6----2----2----6----6----7--2~--
A-4----2----0----4----6----7--2~--
E------0---------4----4----5--0~--

The lead guitar part that goes over this
G-----------------------------------------------------
D-11~---11-9-11-9--------------10-12-141311-11-9----
A-----------------11-97--9-11---------------------7--
E-----------------------------------------------------

Main riff
E-0---0-0----0--------0----000-00-0--000000-0000-0--
B-2/3-2-0------0--------0--000-00-0--000000-0000-0--
G----------2-----1/2-------111-22-1--111111-1122-1--
D--------------------------222-22-2--222222-2222-2--
A--------------------------222-22-2--222222-2222-2--
E--------------------------000-00-0--000000-0000-0--

Verse (you can fugure out the rythym)
E-4--4--0--0--0~-000-00-0-000000-0000-0--
B-5--4--2--2--0~-000-00-0-000000-0000-0--
G-6--5--1--1--2~-111-22-1-111111-1122-1--
D-6--6--3--2--2~-222-22-2-222222-2222-2--
A-4--6--2--1--0~-222-22-2-222222-2222-2--
E----4-----------000-00-0-000000-0000-0--

Then the chorus is the same chords as the intro

Tab legend
=slide down
/=slide up

Log In to leave a comment

After registration we will return you to the same place
Comments
face-with-monocle
If you wait a bit, some comments may appear here...

Shhh...

Most Popular
You Might Like