Loading...
  • 0
  • Share
  • Transposing
    0
  • Font Size
Intro: C - B7 - Em7 }x2

Verse:
Em7 C B7 Em7
Forward yesterday, makes me wanna stay
C B7 Em7
What they said was real, makes me wanna steal
C B7 Em7
Livin' under house, guess I'm livin, I'm a mouse
C B7 Em7
All's I got is time, got no meaning, just this rhyme

Pre-Chorus:
G Asus2
Take time with the wounded hand,
Em7
'Cz it likes to heal
G Asus2
Take time with the wounded hand,
Em7
'Cuz it likes to steal
G Asus2
Take time with the wounded hand,
C B7
'Cuz it likes to heal; I like to steal

Chorus:
E-----------------------------------
B-----------------------------------
G-----------------------------------
D------0-------0-------0------0-2-0-
A----2-------0-------0---0-2--------
E--0-----0-2-----2-3----------------
x8
E----------------------------------- /
B-----------------------------------
G-----------------------------------
D------0-------0-------0------------
A----2-------0-------0---0-1-2------
E--0-----0-2-----2-3----------------

I'm half the man I used to be
(Yes I feel as the dawn it fades to gray)
Well I'm half the man I used to be
(Yes I feel as the dawn it fades to gray)
Well I'm half the man I used to be
(Yes I feel as the dawn it fades to gray)
Well I'm half the man I uesed to be,
Half the man I used to be

Em7

Verse:
Em7 C B7 Em7
Feelin' uninspired, think I'll start a fire
C B7 Em7
Everybody run, Bobby's got a gun
C B7 Em7
Think you're kinda neat, then she tells me I'm a creep
C B7 Em7
Friends don't mean a thing, guess I'll leave it up to me

Pre-Chorus:
G Asus2
Take time with the wounded hand,
Em7
'Cz it likes to heal
G Asus2
Take time with the wounded hand,
Em7
'Cuz it likes to steal
G Asus2
Take time with the wounded hand,
C B7
'Cuz it likes to heal; I like to steal

Chorus:
E-----------------------------------
B-----------------------------------
G-----------------------------------
D------0-------0-------0------0-2-0-
A----2-------0-------0---0-2--------
E--0-----0-2-----2-3----------------
x8
E----------------------------------- /
B-----------------------------------
G-----------------------------------
D------0-------0-------0------------
A----2-------0-------0---0-1-2------
E--0-----0-2-----2-3----------------

I'm half the man I used to be
(Yes I feel as the dawn it fades to gray)
Well I'm half the man I used to be
(Yes I feel as the dawn it fades to gray)
Well I'm half the man I used to be
(Yes I feel as the dawn it fades to gray)
Well I'm half the man I uesed to be,
Half the man I used to be

Em7

Pre-Chorus:
G Asus2
Take time with the wounded hand,
Em7
'Cz it likes to heal
G Asus2
Take time with the wounded hand,
Em7
'Cuz it likes to steal
G Asus2
Take time with the wounded hand,
C B7
'Cuz it likes to heal; I like to steal

Chorus:
E-----------------------------------
B-----------------------------------
G-----------------------------------
D------0-------0-------0------0-2-0-
A----2-------0-------0---0-2--------
E--0-----0-2-----2-3----------------
x8
E----------------------------------- /
B-----------------------------------
G-----------------------------------
D------0-------0-------0------------
A----2-------0-------0---0-1-2------
E--0-----0-2-----2-3----------------

I'm half the man I used to be
(Yes I feel as the dawn it fades to gray)
Well I'm half the man I used to be
(Yes I feel as the dawn it fades to gray)
Well I'm half the man I used to be
(Yes I feel as the dawn it fades to gray)
Well I'm half the man I uesed to be,
Half the man I used to be
Half the man I used to be...

Log In to leave a comment

After registration we will return you to the same place
Comments
face-with-monocle
If you wait a bit, some comments may appear here...

Shhh...