Loading...
Stone Temple Pilots logo

Big Bang Baby Stone Temple Pilots

  • 0
  • Share
  • Transposing
    0
  • Font Size
Song Title: Big Bang Baby (corrected version)
Artist: Stone Temple Pilots
----------------------------------------------

I know this song has already been tabbed, but it was tabbed slightly
Incorrect. This is the way it should be with corrections.

Verse 1 & 3 I got a picture... & Spin me out...
|---------------------------------------------------------------------|
|--------------------------------------------------------------------2|
|-------------5-4-3-3-2-1---------5---------------5-4-3-3-2-1-0-0-2---|
|0-0-3-4-5-5---------------3-3-5-----0-0-3-4-5-5----------------------|

Verse 2, 4 & 5 So turn it up...
|----------------------------------------------------------------------|
|----------------------------------------------------------------2-----|
|-------------5-4-3-3-2-1---------5---------------5-4-3-3-2-1-2----0--3|
|0-0-3-4-5-5---------------3-3-5-----0-0-3-4-5-5-----------------------|

Pre-Chorus Sell your soul and sell...
|----------------------------------------------------------------------|
|--------------------------------------5-------------------------------|
|(3)-3-3--3-------3---------------5h7----5--7-7---7-7-7---7---7-7---7--|
|------------3h5-----5----5-5--5-----------------------------------7--7|

Pre-Chorus (contd)
|----------------------------------------------------------------------|
|----------------------------------------------------------------------|
|7--5--3--3--3------3-5---5-5--5-------5-----7-7---7-7-7---7---7-7---7|
|---------------3h5----------------5h7-----7-------------------------7-|

Chorus
|--------------4-5-----5-5----5-5--------------------4-5-----5-5----5-5|
|------------6--------------5------5--------------6---------------5----|
|7--7-----7----------------------------7--7----7-----------------------|
|------7-------------------------------------7-------------------------|

Chorus (contd)
|------------------------6h7------7--7---------------|------------------|
|5-6---7---7----7--7--7-----------------6h7---7---7.|------------------|
|---------------------------------------------------.|7--7--7-7-7-7-7---|
|----------------------------------------------------|------------------|

Comments or corrections send my way...([email protected])

Submitted by: Andrew ([email protected])

Log In to leave a comment

After registration we will return you to the same place
Comments
face-with-monocle
If you wait a bit, some comments may appear here...

Shhh...

Versions

Most Popular
You Might Like