Loading...
Sting logo

All This Time Sting

  • 0
  • Share
  • Transposing
    0
  • Font Size
Song: ALL THIS TIME (bass tab)
Artist: STING
Tabbed by: FER MADRID
STANDARD TUNING

(DRUMS)
|-------|----------------|--------------|-------------|-------------|
|3----5-|*4--5---5-------|-----------5-*|-5---5-------|-------------|
|4------|*4--------7---7-|-5---5-------*|-------7---7-|-5---5-------|
|-------|----------------|-------8------|-------------|-------8---8-|
123 & 1 2 & 3 4 & 1 2 & 3 4 & 1 2 & 3 4 & 1 2 & 3 4 &

I looked out across... [x7]
|-------------|-------------|--------------|--------------|
|-------------|-----------5-|*-5---5-------|-----------5-*|
|-5---5-------|-5---5-------|*-------7---7-|-5---5-------*|
|-------7---7-|-------7-----|--------------|-------8------|
1 2 & 3 4 & 1 2 & 3 4 & 1 2 & 3 4 & 1 2 & 3 4 &

All this time...
|-------------|-------------|--------------|---------------|
|-5---5-------|-------------|--------------|---------------|
|-------7---7-|-5---5-5---5-|-7---7-7--/10-|-10---107---7-|
|-------------|-------------|--------------|---------------|
1 2 & 3 4 & 1 2 & 3 4 & 1 2 & 3 4 & 1 2 & 3 4 &

|-------------|-------------|-------------|---------------|
|-7---7-------|-------------|-------------|---------------|
|-------------|-----------5-|-5---5-5---5-|-5-5-5-5-5---5-|
|-------5-5-7-|-8---8-8-----|-------------|---------------|
1 2 & 3 4 1 2 & 3 4 & 1 2 & 3 4 & 1 2 3 4 &

Two priests came round... [x7]
|-------------|-------------|--------------|--------------|
|-5---5-------|-----------5-|*-5---5-------|-----------5-*|
|-------7---7-|-5---5-------|*-------7---7-|-5---5-------*|
|-------------|-------8-----|--------------|-------8------|
1 2 & 3 4 & 1 2 & 3 4 & 1 2 & 3 4 & 1 2 & 3 4 &

And all this time
|-------------|-------------|--------------|---------------|
|-5---5-------|-------------|--------------|---------------|
|-------7---7-|-5---5-5---5-|-7---7-7--/10-|-10---107---7-|
|-------------|-------------|--------------|---------------|
1 2 & 3 4 & 1 2 & 3 4 & 1 2 & 3 4 & 1 2 & 3 4 &

|-------------|-------------|-------------|---------------|
|-7---7-------|-------------|-------------|---------------|
|-------------|-----------5-|-5---5-5---5-|-5-5-5-5-5---5-|
|-------5-5-7-|-8---8-8-----|-------------|---------------|
1 2 & 3 4 1 2 & 3 4 & 1 2 & 3 4 & 1 2 3 4 &

If i had my way...
|-------------|-------------|--------------|---------------|
|-5---5-----5-|-5---5-5---5-|--------------|---------------|
|-------7-5---|-------------|-7---7-7--/10-|-10---107---7-|
|-------------|-------------|--------------|---------------|
1 2 & 3 4 1 2 & 3 4 & 1 2 & 3 4 & 1 2 & 3 4 &

|-------------|-------------|-----------------|-----------------|
|-7---7-7-----|-------------|-----------------|-----------------|
|-------------|-------------|-5-5-5-5-5-5-5-5-|-5-5-5-5-5-5-5-5-|
|---------5-7-|-8---8-8---8-|-----------------|-----------------|
1 2 & 3 4 1 2 & 3 4 & 1 2 3 4 1 2 3 4

Blessed are the poor... [x7]
|-------------|-------------|--------------|--------------|
|-5---5-------|-----------5-|*-5---5-------|-----------5-*|
|-------7---7-|-5---5-------|*-------7---7-|-5---5-------*|
|-------------|-------8-----|--------------|-------8------|
1 2 & 3 4 & 1 2 & 3 4 & 1 2 & 3 4 & 1 2 & 3 4 &

And all this time...
|-------------|----------------|--------------|---------------|
|-5---5-------|----------------|--------------|---------------|
|-------7---7-|-5--5-5-5-5-5-5-|-7---7-7--/10-|-10---107---7-|
|-------------|----------------|--------------|---------------|
1 2 & 3 4 & 1 2 3 4 1 2 & 3 4 & 1 2 & 3 4 &

|-------------|-------------|---------------|-------------|
|-7---7-7-----|-------------|---------------|-------------|
|-------------|-----------5-|-5-5-5-5-5---5-|-5---5-5---5-|
|--------5-7-|-8---8-8-----|---------------|-------------|
1 2 & 3 4 1 2 & 3 4 & 1 2 3 4 & 1 2 & 3 4 &

And all this time...
|-------------|-----------|--------------|---------------|
|-5---5-----5-|-5-----5-4-|--------------|---------------|
|-------7-5---|-----5-----|-7---7-7--/10-|-10---107---7-|
|-------------|-----------|--------------|---------------|
1 2 & 3 4 1 2 & 3 4 1 2 & 3 4 & 1 2 & 3 4 &

Father if Jesus exist...
|-------------|-------------|-----------------|-----------------|
|-------------|-------------|-----------------|-----------------|
|-------------|-------------|-5-5-5-5-5-5-5-5-|-5-5-5-5-5-5-5-5-|
|-5---5-5-5-7-|-8---8-8---8-|-----------------|-----------------|
1 2 & 3 4 1 2 & 3 4 & 1 2 3 4 1 2 3 4

Yeah ... Yeah ... [x3] The teachers
|--------------|--------------|-------------|-----------------|
|*-5---5-------|-------------*|-------------|-----------------|
|*-------7---7-|-5---5-------*|-5---5-------|-5---5-------7h9-|
|--------------|-------8---8--|-------7---7-|-------7-7-------|
1 2 & 3 4 & 1 2 & 3 4 & 1 2 & 3 4 & 1 2 & 3 4 e & a

told us ... [x7]
|--------------|---------------|-----------------|-----------------|
|*-7---7-------|--------------*|-7---7---7---7-7-|-7-7-7---7---7---|
|*-------9---9-|-7---7------7-*|-------7---7-----|-------7---7-----|
|--------------|-------10------|-----------------|---------------0-|
1 2 & 3 4 & 1 2 & 3 4 & 1 2 3 4 1 2 3 4

All this time ...
|-------------|-------------|-------------|-------------|
|-------------|-------------|-------------|-------------|
|-------------|-------------|-2---2-2-2-4-|-5---5-5---5-|
|-2---2-2--/5-|-5---52---2-|-------------|-------------|
1 2 & 3 4 & 1 2 & 3 4 & 1 2 & 3 4 1 2 & 3 4 &

|-------------|---------------|-------------|-----------|
|-2---2-2---2-|-2-2-2-2-2---2-|-7---7-4---4-|-7---7-7-6-|
|-------------|---------------|---------7---|-----------|
|-------------|---------------|-------------|-----------|
1 2 & 3 4 & 1 2 3 4 & 1 2 & 3 4 & 1 2 & 3 4

|-------------|-------------|-------------|-------------|
|-4---4-4--/7-|-7---74---4-|-------------|-------------|
|-------------|-------------|-2---2-2-2-4-|-5---5-5---5-|
|-------------|-------------|-------------|-------------|
1 2 & 3 4 & 1 2 & 3 4 & 1 2 & 3 4 1 2 & 3 4 &

One by one ...
|-----------------|-----------------|--------------|------------- |
|-----------------|-----------------|*-7---7-4---4-|-----------7-*|
|-7-7-7-7-7-7-7-7-|-7-7-7-7-7-7-7-7-|*-------------|-7---7-5-----*|
|-----------------|-----------------|--------------|--------------|
1 2 3 4 1 2 3 4 1 2 & 3 4 & 1 2 & 3 4 &

(REPEAT AND FADE OUT)

ANY COMMENTS AT [email protected]

Log In to leave a comment

After registration we will return you to the same place
Comments
face-with-monocle
If you wait a bit, some comments may appear here...

Shhh...