Loading...
Status Quo logo

In The Army Now Status Quo

  • 0
  • Share
  • Transposing
    0
  • Font Size
Intro and break: (over the chords Dm - Am - Dm - C)
E|------------5---------|------------------|-------------10----8-|
B|------6----------8----|------------------|------10--8----------|
G|---------7------------|------------------|---------------------|
D|----------------------|------------------|---------------------|
A|----------------------|------------------|---------------------|
E|----------------------|------------------|---------------------|

Dm
А vacation in the foreign land
Dm
Uncle Sam does the best he can
Gm
You´re in the army now
Dm
Oh, oh you´re in the army - now

Dm
Now you remember what the draftman said

Nothing to do all day but stay in bed
Gm
You´re in the army now
Dm
Oh, oh, you´re in the army now

Bass fill:
G|---------------|
D|--0h2p0-----0--|
A|---------3-----|
E|---------------|

Dm
You´ll be a hero of the neighborhood
Dm
Nobody knows that you left for good
Gm
You´re in the army now
Am Dm
Oh, oh you´re in the army now

Dm
Smiling faces as you wait to land

Fill 1:
E|--10---10----10~~~~~~-|
B|----------------------|
G|----------------------|
D|----------------------|
A|----------------------|
E|----------------------|

Dm
But once you get there no one gives a damn
Gm
You´re in the army now
Am Dm
Oh, oh, you´re in the army now

Break: (over the chords Dm - Am - Dm - C)
E|------------5---------|------------------|-------------10----8-|
B|------6----------8----|------------------|------10--8----------|
G|---------7------------|------------------|---------------------|
D|----------------------|------------------|---------------------|
A|----------------------|------------------|---------------------|
E|----------------------|------------------|---------------------|

Dm (drums breaks)
Hand grenades flying over your head
Em
Missiles flying over your head
Em
If you want to survive get out of bed
Am
You´re in the army now
Bm Em
Oh, oh, you´re in the army now

Em
Shots ring out in the dead of night
Em
The sergeant calls: stand up and fight
Am
You´re in the army now
Bm Em
Oh, oh, you´re in the army now

Em
You've got your orders better shoot on sight
Em
Your finger's on the trigger but it don't seem right
Am
You´re in the army now
Bm Em
Oh, oh, you´re in the army now

Solo:
E|----------15--19--17h15p17----19~~~~--|------------15--19--17h15p17--|-------------|
B|------17------------------------------|--------17--------------------|-------------|
G|--16----------------------------------|----16------------------------|-------------|
D|--------------------------------------|------------------------------|-------------|
A|--------------------------------------|------------------------------|------14--14-|
E|--------------------------------------|------------------------------|-------------|

Em
Night is falling and you just can´t see
Em
Is this illusion or reality
Am
You´re in the army now
Bm Em
Oh, oh, you´re in the army now

Am
You´re in the army now
Bm Em } - playing N times with fill 2
Oh, oh, you´re in the army now /

Fill 2:
E|--------------------------------------|
B|--------------------------------12~~~-|
G|--12--11--12--14--12--11--12----------|
D|--------------------------------------|
A|--------------------------------------|
E|--------------------------------------|

Log In to leave a comment

After registration we will return you to the same place
Comments
face-with-monocle
If you wait a bit, some comments may appear here...

Shhh...