Static X logo

Burn To Burn Static X

  • 0
  • Share
  • Font Size
Static X – Burn To Burn
Static-X
Tuning: CGCFAD

Intro: 8x|
|---------------|
|---------------|
|---------------|
|--3-2--2--2-2--|
|--3-2--2--2-2--|
|--3-2--2--2-2--|

Verse:
| 6x| | 5x|
|--------------|------|--------------|--------------|-----------------|
|--------------|------|--------------|--------------|-----------------|
|--------------|------|--------------|--------------|-----------------|
|--2----4---5--|--10--|--2----4---5--|--7----5---4--|--10-------------|
|--x----x---x--|--x---|--x----x---x--|--x----x---x--|--x--------------|
|--2----4---5--|--10--|--2----4---5--|--7----5---4--|--10----0-14///--|

Chorus: 4x|
|--------------------------------------|
|--------------------------------------|
|--------------------------------------|
|--5-4--4--4-4-------------------------|
|--5-4--4--4-4----4-(4)--4-(4)--4-(4)--|
|--5-4--4--4-4----5p-4---5p-4---5p-4---|

Pre-Verse: 8x|
|---------------|
|---------------|
|---------------|
|--3-2--2--2-2--|
|--3-2--2--2-2--|
|--3-2--2--2-2--|

Verse:
| 6x| | 5x|
|--------------|------|--------------|--------------|-----------------|
|--------------|------|--------------|--------------|-----------------|
|--------------|------|--------------|--------------|-----------------|
|--2----4---5--|--10--|--2----4---5--|--7----5---4--|--10-------------|
|--x----x---x--|--x---|--x----x---x--|--x----x---x--|--x--------------|
|--2----4---5--|--10--|--2----4---5--|--7----5---4--|--10----0-14///--|

Chorus: 4x|
|--------------------------------------|
|--------------------------------------|
|--------------------------------------|
|--5-4--4--4-4-------------------------|
|--5-4--4--4-4----4-(4)--4-(4)--4-(4)--|
|--5-4--4--4-4----5p-4---5p-4---5p-4---|

Bridge: 8x|
|---------------|
|---------------|
|---------------|
|--3-2--2--2-2--|
|--3-2--2--2-2--|
|--3-2--2--2-2--|

Breakdown: 12x|
|-------------|
|-------------|
|-------------|
|--------3-2--|
|--------3-2--|
|--------3-2--|

Pre-Verse: 8x|
|---------------|
|---------------|
|---------------|
|--3-2--2--2-2--|
|--3-2--2--2-2--|
|--3-2--2--2-2--|

Verse:
| 6x| | 5x|
|--------------|------|--------------|--------------|-----------------|
|--------------|------|--------------|--------------|-----------------|
|--------------|------|--------------|--------------|-----------------|
|--2----4---5--|--10--|--2----4---5--|--7----5---4--|--10-------------|
|--x----x---x--|--x---|--x----x---x--|--x----x---x--|--x--------------|
|--2----4---5--|--10--|--2----4---5--|--7----5---4--|--10----0-14///--|

Chorus: 4x|
|--------------------------------------|
|--------------------------------------|
|--------------------------------------|
|--5-4--4--4-4-------------------------|
|--5-4--4--4-4----4-(4)--4-(4)--4-(4)--|
|--5-4--4--4-4----5p-4---5p-4---5p-4---|

Bridge: 8x|
|---------------|
|---------------|
|---------------|
|--3-2--2--2-2--|
|--3-2--2--2-2--|
|--3-2--2--2-2--|

Chorus: 4x|
|--------------------------------------|
|--------------------------------------|
|--------------------------------------|
|--5-4--4--4-4-------------------------|
|--5-4--4--4-4----4-(4)--4-(4)--4-(4)--|
|--5-4--4--4-4----5p-4---5p-4---5p-4---|

Log In to leave a comment

After registration we will return you to the same place
Comments
face-with-monocle
If you wait a bit, some comments may appear here...

Shhh...

Most Popular
You Might Like