Loading...
Starting Line logo

Make Yourself At Home Starting Line

  • 0
  • Share
  • Transposing
    0
  • Font Size
Make Yourself at Home
The Starting Line
Tabbed by Jake doofy88 [email protected]

This song is pretty simple dropped D-D A D G B e
Both guitars are dropped D
This is the riff played in the verses

|------------------------0-----------------|
|--------9------9--------------------------|
|------9------9-------9--------------------|
|----7------7-------7----------00000000----|
|--0------9--------------------00000000----|
|----------------9-------------00000000----|

Chorus so dont wait up ill/ be home soon
|--------------------| ----------- switch ^chord
|--------------------| -----------
|--9-----9-----9-----| --9-------- play this for all
|--7-----7-----7-----|both guitars --7--0----- parts like that
|--9-----0-----7-----| --x--0-----
|--0-----0-----------| --9--0-----

When the riff verse is being played
Before the actual third verse a
Second guitar is playing this
(softly)

Keep repeating
E|--------7-5--|
B|-10-9--------|

Then When guitar one is playing the
Third verse and startes to sing the
Second guitar is palm muting these chords

|---------|
|---------|
|---------|
|-9-------|
|-7----9--|
|------9--|

Bridge 3 times i think
|---------------|
|---------------|
|-9--9--9-9-9---|
|-7--7--7-9-9---|
|-9--x--7-0-x---|
|-0--9----0-7---|

Fast Strum part
(very end)
|---------------------|
|---------------------|
|-99999999---99999999-|
|-77777777---77777777-|x3
|-99999999---77777777-|
|-00000000---00000000-|

Lyrics
Verse-
Make it a note to take your pills she said ill
Leave them on the table in the same brown bottle
You know she said its good to have you home the
Second that I smelt that scent of my own house i said it.

Chorus-
Send just one postcard home and call as often as you can to tell
Us how it goes let us know

Verse-
Make it a note to make a point he said thats good advice ill take
It now ill start to use it you know

Chorus-
Sentences, long messages from me to you to let you know im ok
Ill let you know im out making you proud so dont wait up ill be home soon
Im out of town for now yer what makes it home that ill come back to.

Verse-
Make it a note to take your time they begged take baby steps to everywhere
And come home in one piece to us you know its so good to be home and know
That when i hit the road im think of you both i miss you

Chorus-Send just one postcard home and call as often as you can to tell us
How it goes let use know im out making you proud so dont wait up ill be home soon
Im out of town for now yer what makes it home that ill come back to.

Bridge-
Thank you for everything!!!!

End-
Im out making you proud so dont wait up ill be home soon
Im out of town for now yer what makes it home that ill come back to.

Log In to leave a comment

After registration we will return you to the same place
Comments
face-with-monocle
If you wait a bit, some comments may appear here...

Shhh...

Versions

Most Popular
You Might Like