Loading...
Starting Line logo

Hello Houston Starting Line

  • 0
  • Share
  • Transposing
    0
  • Font Size
The Starting Line - Hello Houston
By:Andrew Mcshan([email protected])

Intro
E|---------------------------------------------------------------------------|
B|---------------------------------------------------------------------------|
G|-4--4-4-4~~-11-11-11-13-11-8-6-8-9-8-11-13-11-8-9-6-4-6-8-4----------------|
D|-4--4-4-4~~----------------------------------------------------------------|
A|-2--2-2-2~~----------------------------------------------------------------|
E|---------------------------------------------------------------------------|

E|---------------------------------------------------------------------------|
B|---------------------------------------------------------------------------|
G|-11-11-11-13-11-8-6-8-9-8-6-8-4~~~~----------------------------------------|
D|---------------------------------------------------------------------------|
A|---------------------------------------------------------------------------|
E|---------------------------------------------------------------------------|
Verse
E|------x--------------------------------------------------------------------|
B|------x--------------------------------------------------------------------|
G|-4-4--x-4-4--6-6-----------------------------------------------------------|
D|-4-4--x-4-4--6-6--6-6--2-2-------------------------------------------------|
A|-2-2--x-2-2--4-4--6-6--2-2-------------------------------------------------|
E|------x-----------4-4--0-0-------------------------------------------------|
Chorus
E|---------------------------------------------------------------------------|
B|---------------------------------------------------------------------------|
G|--4-4--6-6-----------------------------------------------------------------|
D|--4-4--6-6-6-6-2-6-4-------------------------------------------------------|
A|--2-2--4-4-6-6-2-6-4-------------------------------------------------------|
E|-----------4-4-0-4-2-------------------------------------------------------|

Log In to leave a comment

After registration we will return you to the same place
Comments
face-with-monocle
If you wait a bit, some comments may appear here...

Shhh...