Loading...
Staind logo

Open Your Eyes Staind

  • 0
  • Share
  • Transposing
    0
  • Font Size
Artist: STAIND
Album: BREAK THE CYCLE
Song Title: OPEN YOUR EYES
Tabbed: Fernando Delgado

GUITAR: 7 String (Recomended) *6 String tuned down low works also.
So if you have a 7-String, your gonna nail this song perfect!

TUNING (from low to high) Ab, Db, Ab, Db, Gb, Bb, D#
Dropped Half Step down all stings, Drop D on LOW E, and tune low B to G#

^ - Hammer On/Hammer Off / - Slide Up - Slide Down
- Natural Harmonic x - String Mute
PM - Palm Mute

REPEAT EACH PART HOWEVER MANY TIMES IN THE SONG, JUST LISTEN TO FIGURE
OUT HOW MANY TIMES TO PLAY EACH

INTRO
CLEAN/REVERB
E|-----------------------------------------------|
G|-----------------------------------------------|
B|-----------------------------------------------|
D|-12--12-11---12--12-11---12--12-11---12--12-11-|
A|-9---9--9----0---0--0----9---9--9----0---0--0--|
D|-9---9--9----0---0--0----9---9--9----0---0--0--|
A|-----------------------------------------------|

RIFF 1
DISTORTION
E|---------------------------------------------------|
G|---------------------------------------------|
B|------------------------------------------------|
D|------------------------------------------------|
A|---------------------------------------------------|
D|-0^4-x-x-54-0-4-4------0^4-x-x-54-0-4-4----------|
A|-0^2-x-x-32-0-2-2------0^2-x-x-32-0-2-2----------|

VERSE
CLEAN/REVERB
E|-----------------------------------------------|
G|-----------------------------------------------|
B|-----------------------------------------------|
D|-12--12-11---12--12-11---12--12-11---12--12-11-|
A|-9---9--9----0---0--0----9---9--9----0---0--0--|
D|-9---9--9----0---0--0----9---9--9----0---0--0--|
A|-----------------------------------------------|

CHOURS
DISTORTION
E|----------------------------------|
G|----------------------------------|
B|----------------------------------|
D|-5-5--7-7--2--2-2-2--3-3-3-3--3-3-|
A|-5-5--7-7--2--2-2-2--3-3-3-3--3-3-|
D|-5-5--7-7--2--2-2-2--3-3-3-3--3-3-|
A|----------------------------------|
PM____________|

BRIDGE
CLEAN
E|----------------------------------------------------------|
G|----------------------------------------------------------|
B|----------------------------------------------------------|
D|---0-------------0-------------0--------------0-----------|
A|-----0--10--9------0--10--9------0---10--9------0---10--9-|
D|-0------------0-------------------------------------------|
A|----------------------------10-------------10-------------|

Log In to leave a comment

After registration we will return you to the same place
Comments
face-with-monocle
If you wait a bit, some comments may appear here...

Shhh...