Spunge logo

Make Me Happy Spunge

  • 0
  • Share
  • Transposing
    0
  • Font Size
Spunge – Make Me Happy
             Make Me Happy, By [spunge].
Another great track. I do believe that this was the first [spunge] track
I heard, courtesy of Sam Jenkins. Tabbed by FeRg. have fun... but you
Have to be quick. listen carefully for rythmn generations. :)

wait for 3rd bar to begin. (verse)
G---||-----------------------------------------------------||-----------
D---||-----------------------------------------------------||-----------
A---||--7--7-----4--5--7--7--5--4--------------------6--7--||-----------
E---||-----------------------------4--4--4--0--5--5--------||-----------

part: everybody else just...
G---------------------------------------------------||------------------
D---------------------------------------------------||------------------
A---7--7--7--7--7--7--7-----------------------6--7--||------------------
E------------------------0--4--4--4--0--5--5--------||------------------

part: what's the matter with you...
G-----------------------------------------------------------------------
D-----------------------------------------------------------------------
A-----------------------------------------------------------------------
E-----------------------------------------------------------------------

G-----------------------------------------------------------------------
D-----------------------------------------------------------------------
A-----------------------------------------------------------------------
E-----------------------------------------------------------------------

G-----------------------------------------------------------------------
D-----------------------------------------------------------------------
A-----------------------------------------------------------------------
E-----------------------------------------------------------------------

G---------------------||------------------------------------------------
D---------------------||------------------------------------------------
A---------------------||------------------------------------------------
E---------------------||------------------------------------------------

G-----------------------------------------------------------------------
D
A---------9--------------9-----------------7----------------------------
E---7--7-----7--------7-----7--------5--5-------------------------------

that's it. have fun!! :)
G------------------------------------||---------------------------------
D------------------------------------||---------------------------------
A---------------7--------------------||---------------------------------
E---5--------5-----5-----4--4--5--6--||---------------------------------

================================================
== TABLATURE EXPLANATION ==
================================================

---------- ---------- ----t---
----5h8--- Hammeron ----(8)--- Ghost ----6--- Tap
---------- ---------- Note --------
----5p8--- Pulloff ---------- --------

---------- ---------- -----p--
----5/8--- Slide Up -----x---- Dead -----7-- Pop
---------- ---------- Note --s-----
----58--- Slide Down ---------- --5----- Slap

---------- ||------|| Repeat --------
----5~~~-- Vibrato ||*----*|| ---5^--- Bend
---------- ||*----*|| --------
---------- ||------|| --------

-4:------- Time ---------- --------
-4:------- Signature ---------- --------
---------- ---------- --------

================================================
== Created with a demo version of BUCKET O' TAB ==
== tablature creation software for Windows ==
== For more info email [email protected] ==
================================================

Log In to leave a comment

After registration we will return you to the same place
Comments
face-with-monocle
If you wait a bit, some comments may appear here...

Shhh...

Most Popular
You Might Like