Spears Britney logo

You Drive Me Crazy Spears Britney

  • 4
  • Share
  • Transposing
    0
  • Font Size
    15
Spears Britney – You Drive Me Crazy
Song Title: (You Drive Me)Crazy
   >From Album: Baby One More Time
   Artist: Britney Spears
   Released: 1999

Transcribed By: Angela Y.
Contact Email: Angel5284@aol.com

Chords used:

* variations of the same chord

For Version 1
Am 002210
* F 133211 (w/ bass note)
* F 033211
E 022100
G 320001
C 032010

For Real Version
Cm 335541
G# 466544
G 355433
A# 688766
* D# 365343 (w/ bass note)
* D# 065343
* D# 668886 (easier)

--------------------------------------------------------------

Version One: (easier)
Tuning: standard
Capo: none

Verses: Am-F- E-Am repeatedly, with some variations

Chorus:

Am F E Am
E |-------0---1--------------------------|
B |--1-3----------1-0-3--1--0------------|
G |-2-------------------------2----------|
D |--------------------------------------|
A |--------------------------------------|
E |--------------------------------------|

Am F E Am
E |-0-0----------------------------------|
B |-----3-3--1--------0------------------|
G |--------------2-1-----2---------------|
D |--------------------------------------|
A |--------------------------------------|
E |--------------------------------------|

Am F G C
E |-------0---1-------3---1-0------------|
B |--1-3--------1-1------------3-1-------|
G |-2------------------------------------|
D |--------------------------------------|
A |--------------------------------------|
E |--------------------------------------|

Am F E Am
E |-0-1-0-1-0----------------------------|
B |-----------1--1------0----------------|
G |-----------------2-1-----2------------|
D |--------------------------------------|
A |--------------------------------------|
E |--------------------------------------|

--------------------------------------------------------------

Real Version:
Tuning: standard
Capo: none
* A much easier way to play the real version without doing
The shifting is putting a capo on the 3rd fret and moving the
Chords from version one up accordingly. The notes will have
A higher pitch though. *

Verses: Cm-G#- G-Cm repeatedly, with some variations

Chorus:

Cm G# G Cm
E |-------3---4--------------------------|
B |--4-6----------4-3-6--4--3------------|
G |-5-------------------------5----------|
D |--------------------------------------|
A |--------------------------------------|
E |--------------------------------------|

Cm G# G Cm
E |-3-3----------------------------------|
B |-----6-6--4--------3------------------|
G |--------------5-4-----5---------------|
D |--------------------------------------|
A |--------------------------------------|
E |--------------------------------------|

Cm G# A# D#
E |-------3---4-------6---4-3------------|
B |--4-6--------4-4------------6-4-------|
G |-5------------------------------------|
D |--------------------------------------|
A |--------------------------------------|
E |--------------------------------------|

Cm G# G Cm
E |-3-4-3-4-3----------------------------|
B |-----------4--4-------3---------------|
G |-----------------5-4-----5------------|
D |--------------------------------------|
A |--------------------------------------|
E |--------------------------------------|

Log In to leave a comment

After registration we will return you to the same place
Comments
face-with-monocle
If you wait a bit, some comments may appear here...

Shhh...