Loading...
Sparta logo

Cut Your Ribbon Sparta

  • 0
  • Share
  • Transposing
    0
  • Font Size
Sparta - Cut Your Ribbon

Intro: no bass just guitar and drums

Verse:

G-------------------------------------------
D-------------------------------------------
A-------------------------------------------
E--12-12-12--12-10-10-10--7-7-7--7-8-8-8----

G-------------------------------------------
D-------------------------------------------
A--7--7-9-9--7-9-9----7--7-9-9--7-9-9-------
E-------------------------------------------x4

Chorus:

G------------444444222222424242-------------
D-------------------------------------------
A-----6-------------------------------------
E--0----------------------------------------x2

Or

G-------------------------------------------
D-------------------------------------------
A-----6-------------------------------------
E--0---------777777555555757575------------x2

Intro again (no bass)

Verse x4

Chorus x4

Bridge:

G-------------------------------------------
D-------------------------------------------
A-------------------------------------------
E--7----7-8----5----3-----------------------x4

G-------------------------------------------
D-------------------------------------------
A--7--7-9-9--7-9-9----7--7-9-9--7-9-9-------
E-------------------------------------------x2

Chorus x2

Outro:

G-------------------------------------------
D-------------------------------------------
A--7--7-9-9--7-9-9----7--7-9-9--7-9-9-------
E-------------------------------------------x2

If you have any queries/suggestions/corrections please email me at:
[email protected]

Log In to leave a comment

After registration we will return you to the same place
Comments
face-with-monocle
If you wait a bit, some comments may appear here...

Shhh...