Loading...
Soundgarden logo

4th Of July Soundgarden

  • 0
  • Share
  • Transposing
    0
  • Font Size
	                    Fourth of July
Soundgarden
transcribed by: [email protected]

intro and verse variation
G---||--------------------------------------||--||----------------------
D---||*------------------------------------*||--||*---------------------
A---||*--7--7--7--6--5--5--5--4p5p4--------*||--||*--7--7--7--6--5------
E---||-------------------------------4--4---||--||----------------------

G-----------------------------------------------------------------------
D-----------------------------------------------------------------------
A---5--5--4p5p4--------7--7--7--6--7--7--7--6--5--5--5--4p5p4-----------
E----------------4--4------------------------------------------4--4-----

solo
G----||---------------------------------------------||------------------
D---*||---------------------------------------------||------------------
A---*||-----------------7--7--7--7--5--5p7p5--4-----||------------------
E----||--4--4-----4--7---------------------------4--||------------------

I couldnt transcribe the bassline for the last part
So i put the guitar line.

Log In to leave a comment

After registration we will return you to the same place
Comments
face-with-monocle
If you wait a bit, some comments may appear here...

Shhh...

Most Popular
You Might Like