Loading...
Soul Asylum logo

Somebody To Shove Soul Asylum

  • 0
  • Share
  • Transposing
    0
  • Font Size
----------------------------------------------------------------------------
SOMEBODY TO SHOVE - Soul Asylum
----------------------------------------------------------------------------
Tabbed by: Jesse Benedick
Email: [email protected]

Tuning: Standard

E|-12--------------------15-------14-----------|--0-----0------------------|
B|----12----15-12----12-----12-------12----15--|--0-----0------------------|
G|-------12-------12-----------12-------12-----|--4-----2h4----------------|
D|---------------------------------------------|--4-----4------------------|
A|---------------------------------------------|--2-----2------------------|
E|---------------------------------------------|---------------------------|
Opening Riff Guitar 1 Guitar 2
E|-------------------------------------------------------------------------|
B|-------------------------------------------------------------------------|
G|--5----4----5----4----5----4----5----4-----------------------------------|
D|--5----4----5----4----5----4----5----4-----------------------------------|
A|--3----2----3----2----3----2----3----2-----------------------------------|
E|-------------------------------------------------------------------------|
pm..................................
E|--------3------3------3------3----|-------------------------------|------|
B|----------3------3------3------3--|-------------------------------|------|
G|-------------2--------------------|-------5-----4------2----------|---5--|
D|-------------2------2------2------|-------5-----4------2----------|---5--|
A|------2-------------2------3------|-------3-----2------0----------|---3--|
E|------3---------------------------|-------------------------------|------|
And I'm waiting by the phone.. Cause I, want somebody to shove
E|-------------------------------------14----------14----------15----------|
B|----------------------------------17----17----17----17----17----17----17-|
G|--------------11b13r11~-9-7----16----------16----------16----------16----|
D|-------6-7-9----------------9~-------------------------------------------|
A|--5/7--------------------------------------------------------------------|
E|-------------------------------------------------------------------------|
Solo
E|15--------12----12----12----12----12----12----12----12-------------------|
B|---17--12----10----12----10----12----10----12----10----------------------|
G|-------------------------------------------------------------------------|
D|-------------------------------------------------------------------------|
A|-------------------------------------------------------------------------|
E|-------------------------------------------------------------------------|

E|-------------------------------|-----------------------------------------|
B|-------------------------------|-----------------------------------------|
G|-----------------------4-------|-----------------------------------------|
D|--2------2------2------4-------|-----12~---------------------------------|
A|--2------2------2------2-------|-----------------------------------------|
E|--0------0------0--------------|-----------------------------------------|
Guitar 2 behind solo End, repeat opening riff, but ad last note

Well, those are all the parts, just put them in the right order, and you've got
Yourself a great tab. Rock on!

| / slide up
| slide down
| h hammer-on
| p pull-off
| ~ vibrato
| + harmonic
| x Mute note
============================================================================

Log In to leave a comment

After registration we will return you to the same place
Comments
face-with-monocle
If you wait a bit, some comments may appear here...

Shhh...

Versions

Most Popular