Loading...
Sonata Arctica logo

San Sebastian Sonata Arctica

  • 0
  • Share
  • Transposing
    0
  • Font Size

intro
G------------------------------------|
D------------------------------------|
A--------4---------7---7--7--5---5--|
E---2---------5----------------------|

G---------------------------------------------------------------------------------||final intrp
D---------------------------------------------------------------------------~~----||
A- /9---9---5---5---7---7--7------------------7---7--7----5--/-9----5----7~~----||
E-----------------------------2---------5----------------------------------------||

Verso 1
G----------------------------------------------------------------------------------|
D----------------------------------------------------------------------------------|
A--------------------------------------4-4-4-4-4-4-4-4-4-4-4-4-4-4-4-4-4-----------|
E--2-2-2-2-2-2-2-2-2-2-2-2-2-2-2-2-2---------------------------------------2-2-2-2-|
pm..............................| pm......................| pm.....

G----------------------------------------------------------------------------------|
D--------------------------------------------------------------------~-------------|
A-----------------------------4-4-4-4-4-4-4-4-4-4~4-4-4-4-4-4-4-4---5~----~----~---|
E-2-2-2-2-2-2-2-2-2-2-2-2-2----------------------------------------------5~---7~---|
..........................| pm..............| pm...............|

G----------------------------------------------------------------------------------|
D---~------------------------------------------------------------------------------|
A--7~-----------------------------------------4-4-4-4-4-4-4-4-4-4-4-4-4-4-4--------|
E---------2-2-2-2-2-2-2-2-2-2-2-2-2-2-2-2-2-----------------------------------2-2-2|
pm..............................| pm............................| pm

G----------------------------------------------------------------------------------|
D--------------------------------------------------------------------------~-------|
A-----------------------------------4-4-4-4-4-4-4-4-4-4~4-4-4-4-4-4-4-4---5~----~--|
E-2-2-2-2-2-2-2-2-2-2-2-2-2-2-2-2----------------------------------------------5~--|
................................| pm..............| pm..............|

Bridge (1)
G-----------|----------------------------------------------------------------------|
D--------~--|--------------------------------4-4-4-4-4-4-4-4-4-4-4-4-4-4-----------|
A---~---7~--|--5-5-5-5-5-5-5-5-5-5-5-5-5-5---------------------------------7-7-7-7-|
E--7~-------|----------------------------------------------------------------------|
pm..........| pm....| pm..| pm..........| pm....| pm..| pm.....

G----------------------------------------------------------------------------------|
D-----------------------7-7-7-7-7-7-7-7-7-7-7-7-7-7--------------------------------|
A-7-7-7-7-7-7-7-7-7-7---------------------------------5-5-5-5-5-5-5-5-5-5-5-5-5-5--|
E----------------------------------------------------------------------------------|
......| pm....| pm..| pm..........| pm....| pm..| pm..........| pm....| pm..|

Coro
G-----------------------------------------------------------------------|----------|
D--4-4-4-4-4-4-4-4-4-4-4-4-4-4---------------------------------------~--|---------~|
A-------------------------------7-7-7-7-7-7-7-7-7-7-7-7-7-7-7-7-7---4~--|----~---4~|
E-----------------------------------------------------------------------|---2~-----|
pm..........| pm....| pm..| pm..............................|

x2 Verso 2
G-------------------------------------------|--------------------------------------|
D----------~----~------~-----~-----~----~--*|--------------------------------------|
A-----~---7~---5~--/-9~----5~--/-7~---7~--*|--------------------------------------|
E---5~-------------------------------------|--2-2-2-2-2-2-2-2-2-2-2-2-2-2-2-2-2---|
pm..............................|

G----------------------------------------------------------------------------------|
D----------------------------------------------------------------------------------|
A-4-4-4-4-4-4-4-4-4-4-4-4-4-4---------------------------------4-4-4-4-4-4-4-4-4-4-4|
E-------------------------------2-2-2-2-2-2-2-2-2-2-2-2-2-2------------------------|
pm..........| pm....| pm..| pm..........| pm....| pm..| pm..........| pm....|

G----------------------------------------------------------------------------------|
D----------------------------------------------------------------------------------|
A-4-4-4---5-5-5-5-5-5-5-5-5-5-5-5-5-5---------------------------------2-2-2-2-2-2-2|
E---------------------------------------5-5-5-5-5-5-5-5-5-5-5-5-5-5----------------|
pm..| pm..........| pm....| pm..| pm..........| pm....| pm..| pm..........

G----------------------------------------------------------------------------------|
D----------------------------------------------------------------------------------|
A-2-2-2-2-2-2-2-/-----------------------------------------------/-4-4-4-4-4-4-4-4-4|
E----------------------------------2-2-2-2-2-2-2-2-2-2-2-2-2-2--------------------|
pm....| pm..| pm..........| pm..........| pm....| pm..| pm...........| p

G----------------------------------------------------------------------------------|
D-------------------------------------------------------------------------~--------|
A-4-4-4-4-4---------------------------------4-4-4-4-4-4-4-4-4-4-4-4-4-4--5~----~---|
E-------------2-2-2-2-2-2-2-2-2-2-2-2-2-2-------------------------------------5~---|
m...| pm..| pm..........| pm....| pm..| pm..........| pm....| pm..|

Bridge (2)
G-----------|----------------------------------------------------------------------|
D--------~--|--------------------------------4-4-4-4-4-4-4-4-4-4-4-4-4-4-----------|
A---~---7~--|--5-5-5-5-5-5-5-5-5-5-5-5-5-5---------------------------------7-7-7-7-|
E--7~-------|----------------------------------------------------------------------|
pm..........| pm....| pm..| pm..........| pm....| pm..| pm.....

G----------------------------------------------------------------------------------|
D-----------------------7-7-7-7-7-7-7-7-7-7-7-7-7-7--------------------------------|
A-7-7-7-7-7-7-7-7-7-7---------------------------------5-5-5-5-5-5-5-5-5-5-5-5-5-5--|
E----------------------------------------------------------------------------------|
......| pm....| pm..| pm..........| pm....| pm..| pm..........| pm....| pm..|

G----------------------------------------------------------------------------------|
D---4-4-4-4-4-4-4-4-4-4-4-4-4-4------------------------------------------------~~--|
A---------------------------------7-7-7-7-7-7-7-7-7-7-7-7-7-7---4-4-4-4-4-4-4-4~~--|
E----------------------------------------------------------------------------------|
pm..........| pm....| pm..| pm..........| pm....| pm..| pm..........|

G---Chorus---|
D------------|
A------------|
E------------|

giutarra y teklao interludio
G----------------------------------------------------------------------------------|
D---~---------~----------~-----~-----~---------~-------------------------------~--8|
A--5~---7-/-8~-----~----3~----4~----5~---7-/-8~-----~----~---5--------------/-6~---|
E-----------------6~-------------------------------6~---5~-----3-5-3-1h3h5--------|

G------------------||
D-5----------------||
A---6-5~-4~-5~-7~--||
E------------------||

Solo guitarra y teklao 1
G----------------------------------------------------------------------------------|
D----------------------------------------------------------------------------------|
A---0-0-0-0-0-0-0-0-0-0-0-0-0-0-0-0-0-0-0-0-0-0-0-0---5-5-5-5-5-5-5-5-5-5-5-5-5-5-5|
E----------------------------------------------------------------------------------|
pm............................................| pm..........................

x2
G-----------------------||
D----------------------*||
A-5-5-5-5-5-5-5-5-5-5--*||
E-----------------------||
....................|

G---------------------------------------------------------------------||
D-------~---~----~------~-------~---------~---~----~-----~-------~~---||
A---~--4~--5~--1~--/--6~---~--5~-----~--4~--5~--1~--/-6~---~--5~~---||
E--3~----------------------5~-------3~---------------------5~--------||

G|-----------------------------|
D|---~------7--7---------------|
A|--6~---6---------------------|
E------------------------------|

Verso 3
G----------------------------------------------------------------------|
D----------------------------------------------------------------------|
A---------------------------------4-4-4-4-4-4-4-4-4-4-4-4-4-4----------|
E---2-2-2-2-2-2-2-2-2-2-2-2-2-2---------------------------------2-2-2-2|
pm..........| pm....| pm..| pm..........| pm....| pm..| pm....

G----------------------------------------------------------------------------------|
D----------------------------------------------------------------------------------|
A-----------------------4-4-4-4-4-4-4-4-4-4-4-4-4-4-/-5-5-5-5-5-5-5-5-5-5-5-5-5-5--|
E-2-2-2-2-2-2-2-2-2-2--------------------------------------------------------------|
......| pm....| pm..| pm..........| pm....| pm..| pm..........| pm....| pm...|

G----------------------------------------------------------------------------------|
D----------------------------------------------------------------------------------|
A-------------------------------2-2-2-2-2-2-2-2-2-2-2-2-2-2-/-7-7-7-7-7-7-7-7-7-7-7|
E-5-5-5-5-5-5-5-5-5-5-5-5-5-5------------------------------------------------------|
pm..........| pm....| pm..| pm..........| pm....| pm..| pm..........| pm....|

G----------------------------------------------------------------------------------|
D----------------------------------------------------------------------------------|
A-7-7-7---------------------------------4-4-4-4-4-4-4-4-4-4-4-4-4-4----------------|
E---------2-2-2-2-2-2-2-2-2-2-2-2-2-2---------------------------------2-2-2-2-2-2-2|
pm..| pm..........| pm....| pm..| pm..........| pm....| pm..| pm..........|

G-------------------------------------------------------------------|----Bridge----|
D-----------------------------------------------~----------------~--|--------------|
A-----------------4-4-4-4-4-4-4-4-4-4-4-4-4-4--5~----~-----~----7~--|--------------|
E-2-2-2-2-2-2-2-------------------------------------5~----7~--------|--------------|
pm.....| pm..| pm..........| pm....| pm..|

Coro (2) x4
G---------------------------|--------------------------------------------------|
D-------------------------------|---------~----------~------~------~----~-----~---*|
A-7-5-4-5----7-----------------|----~---5~----~----8~----6~--/-10~---6~----8~---*|
E----------------0~-------------|---3~--------6~-----------------------------------|

G--------------------|| end
D--------------------||
A-----~~----~---~----||
E---3~~----~---~----||

Volvi con sonata kauros markolix jajjaj [email protected]

Log In to leave a comment

After registration we will return you to the same place
Comments
face-with-monocle
If you wait a bit, some comments may appear here...

Shhh...