Soil logo

Halo Soil

  • 4
  • Share
  • Transposing
    0
  • Font Size
Soil – Halo
Band: Soil
Song: Halo
Album: Scars
Tuning: C,G,C, F
Tabbed By: Dean К. ([email protected])

Intro
F|------------- F|---------------
C|------------- X3 C|---------------
G|------------- G|---------------
C|-3-5-3-5-0-0- C|-3-5-3-5-0-0-5-

Verse
F|---------------------------------------
C|---------------------------------------
G|---------------------------------------
C|-3-5-3-0-3-5-3-0-3-5-3-0-3-5-3-0-0-0-0-

Chorus
F|---------------------------------
C|---------------------------------
G|---------------------------------
C|-3-3-3-3-5-5-5-5-3-3-3-3-0-0-0-0-

Repeat Intro

Bridge
F|--------------------
C|--------------------
G|--------------------
C|-3-5-3-5-0-(let ring)

Solo
F|---------------------------------
C|---------------------------------
G|---------------------------------
C|-0-0-0-0-3-3-3-3-7-7-7-7-5-5-5-5-

Outro Repeat Chorus

Log In to leave a comment

After registration we will return you to the same place
Comments
face-with-monocle
If you wait a bit, some comments may appear here...

Shhh...

Most Popular
You Might Like