Sod logo

Ram It Up Sod

  • 0
  • Share
  • Font Size
Sod – Ram It Up
S.О. D. - Ram It Up
Album: Speak English Оr Die (reissued)
Tabbed by Dan Priest ([email protected])
Riff 1 (all notes muted)
E|---------------------------------|-----|
B|---------------------------------|-----|
G|---------------------------------|-----|Play this the
D|-----4-------5-------4-------4---|-----|last time only
A|---4---4---5---5---4---4---4---4-|--4--|
E|-2-------3-------2-------2-------|--2--|

Riff 2 (This might be strummed, it's hard to tell)
E|---------|
B|---------|
G|---------|
D|---------|
A|-4-5-4-2-|
E|-2-3-2-0-|

Riff 3 (x=10)
E|-----------------------------|
B|-----------------------------|
G|-----------------------------|
D|-----------------------------|
A|-99999995555559999999xxxxxxx-|
E|-777777733333377777778888888-|

Riff 4 (same as Rriff 2)
|---------------|
|---------------|
|---------5-6-5-|
|---------3-4-3-|
|-4-5-4-2-------|
|-2-3-2-0-------|

Riff Structure
1. Riff 1 x 4
2. Riff 2 x 4
3. Riff 3 x 2
4. Riff 2 x 4
5. Riff 3 x 2
6. Riff 2 x 4
7. Riff 3 x 2
8. Riff 4 x 2
9. Riff 3 x 2

Log In to leave a comment

After registration we will return you to the same place
Comments
face-with-monocle
If you wait a bit, some comments may appear here...

Shhh...