Loading...
Smile Empty Soul logo

Bottom Of A Bottle Smile Empty Soul

  • 0
  • Share
  • Transposing
    0
  • Font Size
Band: Smile Empty Soul
Song:Bottom Of A Bottle
Tabbed by: Justin
Tuning : C# G# C# F# A# D# Tempo: about 115 or so

Note: This tab is pretty straight foreward, songs are pretty
Simple . Im pretty sure its all right. timing should be right
In most places. not sure about the -12v- verse fill but its close.
Liste to the song to figure out where t place things.
Well, here you go.

Intro (clean with slight flanger)
|--------------------------------|--------------------------------|
|--------------------1---1p0-----|--------------------0-----------|
|------0---------------------0---|------0-----------------0-------|
|--------------------------------|--------------------------------|
|--------------------------------|0-----------3-------------------|
|2-----------0-------------------|--------------------------------|

|--------------------------------|--------------------------------|
|--------------------1---1p0-----|--------------------0-----------|
|------0---------------------0---|------0-----------------0-------|
|--------------------------------|--------------------------------|
|--------------------------------|0-----------3-------------------|
|2-----------0-------------------|--------------------------------|

Riff 1 (Distortion)
|--------------------------------|--------------------------------|
|--------------------------------|--------------------------------|
|--------------------------------|--------------------------------|
|------------5-----5-----5-------|--------------------------------|
|2-----0-----3-----3-----3-0-----|7-----7-7-7-7-----x-9---5---0---|
|2-----0-------------------0-----|7-----7-7-7-7-----x-9---5---0---|

Chorus (Distortion)
|--------------------------------|--------------------------------|
|--------------------------------|--------------------------------|
|--------------------------------|--------------------------------|
|--------------------------------|--------------------------------|
|2-----2-2---0-----0-----0-0-0-0-|7-----7-7---10----10----10101010|
|2-----2-2---0-----0-----0-0-0-0-|7-----7-7---10----10----10101010|

Bridge (clean)
|--------------------------------|--------------------------------|
|--------------------------------|--------------------------------|
|--------------------------------|--------------------------------|
|--------------------------------|--------------------------------|
|2---2---2---2---2---2---2---2---|5---5---5---5---5---5---5---5---|
|2---2---2---2---2---2---2---2---|5---5---5---5---5---5---5---5---|
m m m m m m m m m m m m m m m m

|--------------------------------|--------------------------------|
|--------------------------------|--------------------------------|
|--------------------------------|--------------------------------|
|--------------------------------|--------------------------------|
|10--10--10--10--10--10--10--10--|10--10--10--10--10--10--10--10--|
|10--10--10--10--10--10--10--10--|10--10--10--10--10--10--10--10--|
m m m m m m m m m m m m m m m m
Slowly release palm mute last time

Play this with Riff 1 first time fading in and with chorus.
Listen to the song to know when.
|--------------------------------|--------------------------------|
|--------------------------------|--------------------------------|
|9-9-9-9-9-9-9-9-9-9-9-9-9-9-9-9-|9-9-9-9-9-9-9-9-9-9-9-9-9-9-9-9-|
|--------------------------------|--------------------------------|
|7-7-7-7-7-7-7-7-7-7-7-7-7-7-7-7-|7-7-7-7-7-7-7-7-7-7-7-7-7-7-7-7-|
|--------------------------------|--------------------------------|

|--------------------------------|--------------------------------|
|--------------------------------|--------------------------------|
|9-9-9-9-111111111111111111111111|12121212121212121212121214141414|
|--------------------------------|--------------------------------|
|7-7-7-7-9-9-9-9-9-9-9-9-9-9-9-9-|10101010101010101010101012121212|
|--------------------------------|--------------------------------|

|--------------------------------|--------------------------------|
|--------------------------------|--------------------------------|
|14141414191919191919191919191919|19191919191919191919191919191919|
|--------------------------------|--------------------------------|
|12121212171717171717171717171717|17171717171717171717171717171717|
|--------------------------------|--------------------------------|

Verse fills.
First verse 2nd verse
|-14-15--------------------------|----------------10---8---7h8p7--|
|--------------------------------|-12tr13-------------------------|
|--------------------------------|-(fade in)----------------------|
|--------------------------------|--------------------------------|
|--------------------------------|--------------------------------|
|--------------------------------|--------------------------------|

End verses with:
|--------------------------------|--------------------------------|
|--------------------------------|--------------------------------|
|--------------------------------|--------------------------------|
|--------------------------------|--------------------------------|
|--------------------------------|----------------3-3-3-3-3-3-3-3-|
|2-2-2-2-2-2-2-2-5-5-5-5-5-5-5-5-|7-7-7-7-7-7-7-7-----------------|
palm mute and slowly release about.........here

And i guess thats it.

Log In to leave a comment

After registration we will return you to the same place
Comments
face-with-monocle
If you wait a bit, some comments may appear here...

Shhh...