Slick Shoes logo

Nows The Time Slick Shoes

  • 0
  • Share
  • Font Size
    15
Slick Shoes – Nows The Time
-----------------------------------------------------------------------------
			     Now's The Time- Slick Shoes
-----------------------------------------------------------------------------
Tabbed by: Zamboni
Email: yowzenwutzee@hotmail.com

Tuning: Standard Concert Pitch

Intro Played Twice (Second Time As Backup Instrument)
E|--------------------------------------------------------------------------|
B|--------------------------------------------------------------------------|
G|--7-7--7-7-------------------9-9--10-10-10--10-10-------------------------|
D|--5-7--5-5--7-7--8-8-8--8-8--9-9--10-10-10--10-10--7-7/10-10-10--10-10----|
A|--5-5--5-5--5-5--8-8-8--8-8--7-7--8--8--8---8--8---7-7/10-10-10--10-10----|
E|------------5-5--6-6-6--6-6------------------------5-5/8--8--8---8--8-----|

E|--------------------------------------------------------------------------|
B|--------------------------------------------------------------------------|
G|--------------------------------------------------------------------------|
D|--5-5-5-------------------------------------------------------------------|
A|--5-5-5-------------------------------------------------------------------|
E|--3-3-3-------------------------------------------------------------------|

| /  slide up
|   slide down
| h  hammer-on
| p  pull-off
| ~  vibrato
| +  harmonic
| x  Mute note
===============================================================================

Log In to leave a comment

After registration we will return you to the same place
Comments
face-with-monocle
If you wait a bit, some comments may appear here...

Shhh...