Loading...
Slapshock logo

Satellite Kid Slapshock

  • 0
  • Share
  • Transposing
    0
  • Font Size
Song:satellite kid
Album:11-41
Artist:slapshit
Tabbed by:leander m.
Legend:tune standard to drop D
. palm mute
()natural harmonics
/ slides up and down
B hammer
P pull off
Info:to play this song,you must know how to play natural harmonics
E-mail me at [email protected] text/call 09193216020

Intro:(guitar I)4x
E|------------------------------------------------|
B|------3--------1-----1------3--------3-------3--|
G|----2---2----2-----2------2---2----2-------2----|
D|--0--------3-----2------0-----------------------|
A|---------------------------------1-----0h3------|
D|------------------------------------------------|

Guitar II(3x)
E|--11----11-----(7)------|
B|-----11----(9)-----(9)--|
G|------------------------|
D|------------------------|
A|------------------------|
D|------------------------|

Pick slide

E|--------------------------|-----------|-------|-----------|-------------|
B|--------------------------|-----------|-------|-----------|-------------|
G|--------------------------|-----------|-------|-----------|-------------|
D|--------------------------|-----------|-------|-----------|-------------|
A|--0-0-0-0--0-0-0-0-0-0-0--|--0-0-0-0--|--0-0--|--0-0-0-0--|--0-0-0-0-0--|
D|--0-0-0-0--0-0-0-0-0-0-0--|--0-0-0-0--|--0-0--|--0-0-0-0--|--0-0-0-0-0--|
. . . . . . . . . . . . . . . . . . . . . . . . . .
Stanza:guitar II(I know what you feel..)
E|---------------------------------------|
B|--(9)-(9)-(9)-(5)-(5)-(5)-(7)-(7)-(7)--|
G|---------------------------------------|
D|---------------------------------------|
A|---------------------------------------|
D|---------------------------------------|

Theres so many things....
E|--------------------------------|-------|
B|--------------------------------|-------|
G|--------------------------------|-------|
D|---------------------------7-8--|--7-8--|
A|--0-0-0-0--0-0-0-0--0-0-0--5-6--|--5-6--|
D|--0-0-0-0--0-0-0-0--0-0-0-------|--0-0--|
. . . . . . . . . . .

Refrain:
E|----------------------------------------------------------|
B|----------------------------------------------------------|
G|----------------------------------------------------------|(repeat)
D|--0-------7-------3-5-3-0---------7-------3-5-3--3-5-3--|
A|--0-------5-------3-5-3-0---------5-------3-5-3--3-5-3--|
D|--0-0-0-0-0--0-0--3-5-3-0--0-0-0--0--0-0--3-5-3--3-5-3--|
. . . . . . . . . .

Chorus:
E|--------------|----------------------------------------------------|
B|--------------|----------------------------------------------------|
G|--------------|----------------------------------------------------|
D|-------3-5-3--|--0---------7---------7-----10---------9---------9--|
A|-------3-5-3--|--0-0-0-0-0-5-5-5-5-5-5-0-0--8-8-8-8-8-7-7-7-7-7-7--|
D|--0-0--3-5-3--|--0-0-0-0-0-0-0-0-0-0-0-0-0--0-0-0-0-0-0-0-0-0-0-0--|
. . . . . . . . . . . . . . . . . . . .
E|-----------------------------------------------|
B|-----------------------------------------------|
G|-----------------------------------------------|(repeat)
D|--0---------7---------7--5---------5-----10-7--|
A|--0-0-0-0-0-5-5-5-5-5-5--3-3-3-3-3-3-0-0-8--5--|
D|--0-0-0-0-0-0-0-0-0-0-0--0-0-0-0-0-0-0-0-0--0--|
. . . . . . . . . . . . . .

Stanza
Refrain
Chorus

(bridge)
E|----------------|----------------|--------------|------------|
B|----------------|----------------|--------------|------------|
G|--7---7--7---8--|----------------|--------------|------------|
D|----7------7----|------8-8--8-7--|-------8-8-7--|--8-8--8-7--|
A|----------------|--0-0-6-6--6-5--|--0-0--6-6-5--|--6-6--6-5--|
D|----------------|--0-0-0-0--0-0--|--0-0--0-0-0--|--0-0--0-0--|
. . . .
E|-----|----------------------|
B|-----|----------------------|
G|-----|----------------------|
D|--8--|--7-7--10---------10--|
A|--6--|--5-5--8--0-0-0-0--8--|
D|--0--|--0-0--0--0-0-0-0--0--|
. . . .
(repeat chorus)

E|---------| ---------------|
B|---------| ---------------|
G|---------| ---------------|
D|--0-3-5--|(7x)--7-7-7-7-7-7--|
A|--0-3-5--| --5-5-5-5-5-5--|
D|--0-3-5--| --0-0-0-0-0-0--|

Submitted by:[email protected]
End

Log In to leave a comment

After registration we will return you to the same place
Comments
face-with-monocle
If you wait a bit, some comments may appear here...

Shhh...

Most Popular
You Might Like