Loading...
Slapshock logo

Satellite Kid Slapshock

  • 0
  • Share
  • Transposing
    0
  • Font Size
This song is done with two guitar
E-mail me for comments and suggestions

^-upstroke
-slide down
()-hold briefly and then let it go
Intro:
2x
E-|------------------------------------------------------------------|-
B-|------------------------------------------------------------------|-
G-|-----7--------6------5--------------------------------------------|-
D-|---7---7----7------5----------------------------------------------|-
A-|-5--------6------3------------------------------------------------|-
D-|------------------------------------------------------------------|-

6x
E-|------------------------------------------------------------------|-
B-|-7----------------------------------------------------------------|-
G-|-----7------6-----5-----------------------------------------------|-
D-|---7------7-----5-------------------------------------------------|-
A-|-5------6-----3---------------------------------------------------|-
D-|------------------------------------------------------------------|-

Verse:
E-|------------------------------------------------------------------|-
B-|------------------------------------------------------------------|-
G-|------------------------------------------------------------------|-
D-|-----33-33--3333--333--33-----------------------------------------|-
A-|-----33-33--3333--333--33-----------------------------------------|-
D-|-933-33--3333--333--33-----------------------------------------|-
^ ^ ^ ^ ^

Verse:(Fill 1)
E-|------------------------------------------------------------------|-
B-|--15-15-15----12-12-12-----11-11----------------------------------|-
G-|------------------------------------------------------------------|-
D-|------------------------------------------------------------------|-
A-|------------------------------------------------------------------|-
D-|------------------------------------------------------------------|-

Verse:(Fill 2)
E-|------------------------------------------------------------------|-
B-|------------------------------------------------------------------|-
G-|------------------------------------------------------------------|-
D-|------------------------------------------------------------------|-
A-|--5555--7---------------------------------------------------------|-
D-|------------------------------------------------------------------|-

Pre-chorus: (heavy distortion)
E-|------------------------------------------------------------------|-
B-|------------------------------------------------------------------|-
G-|------------------------------------------------------------------|-
D-|-(3)(3)(3)(3)(3)(3)(3)--------------------------------------------|-
A-|-(3)(3)(3)(3)(3)(3)(3)--------------------------------------------|-
D-|-(3)(3)(3)(3)(3)(3)(3)--------------------------------------------|-

Chorus:
E-|------------------------------------------------------------------|-
B-|------------------------------------------------------------------|-
G-|------------------------------------------------------------------|-
D-|-77777--9999--12-12-12-12--14-14-14-14----------------------------|-
A-|-77777--9999--12-12-12-12--14-14-14-14----------------------------|-
D-|-77777--9999--12-12-12-12--14-14-14-14----------------------------|-

Bridge:solo 2x (light distortion)
E-|------------------------------------------------------------------|-
B-|------------------------------------------------------------------|-
G-|-7---7---7---8----------------------------------------------------|-
D-|---7-------7------------------------------------------------------|-
A-|------------------------------------------------------------------|-
D-|------------------------------------------------------------------|-

E-|------------------------------------------------------------------|-
B-|------------------------------------------------------------------|-
G-|------------------------------------------------------------------|-
D-|-(3)(3)(3)(3)(3)(3)(3)--------------------------------------------|-
A-|-(3)(3)(3)(3)(3)(3)(3)--------------------------------------------|-
D-|-(3)(3)(3)(3)(3)(3)(3)--------------------------------------------|-

Log In to leave a comment

After registration we will return you to the same place
Comments
face-with-monocle
If you wait a bit, some comments may appear here...

Shhh...

Most Popular
You Might Like