Loading...
Slapshock logo

Countdown Slapshock

  • 0
  • Share
  • Transposing
    0
  • Font Size
SONG: countdown
BAND: slapshock

Drop guitar by a whole step (DAFCGD)

LEGEND:
b = break
h = hammer on
) = let ring

Intro: Fig. 1 (clean)

D
A-----------------------repeat-----------------------
F-------------------------7x-------------------------
C------7----------------before--------7--------------
G----------5-5---3-2----------------------5b---------
D--0-0---0-----0------------------0-0---0------------

Fig. 2 with distortion

D------------------------------
A
F--------7---------------------
C--------7---------------------
G--5b-5b-5--5-5b-5b-3b-3b-6----
D--5b-5b----5-5b-5b-3b-3b-6----

After Fig. 2, you'd hear somethin' like:

D
A--5-5-3-3-6-6-----------------
F------------------------------
C------------------------------
G------------------------------
D------------------------------

Stanza: (main riff)

D----------------------5-5------------------------------------
A--5b-5b-5b--------5-5-----6-6-5b-5b-5b--------5-5-3-3-6-6----
F-------------------------------------------------------------
C-------------------------------------------------------------
G-------------------------------------------------------------
D-------------------------------------------------------------

Back-up for Main riff:

D------------------------------
A------------------------------
F------------------------------
C
G--5b-5b-5b------5b---5b-------
D--5b-5b-5b------5b---5b-------

Pre-chorus:
As far as what I've heard, the pre-chorus is done by alternating
the tab below and the main riff.

D-------------------------------------------------------
A-------------------------------------------------------
F
C--5b---5b-5b-5h6-5b--5b--5b-5h6-5b--5b--5b-5h6-5b------
G--5b---5b-5b-5h6-5b--5b--5b-5h6-5b--5b--5b-5h6-5b------
D-------------------------------------------------------

Repeat 4x; end with:

D------------------------------
A------------------------------
F
C--5)--7)----------------------
G--5)--7)----------------------
D------------------------------

Chorus:
*Repeat Fig. 2

Back from Stanza to Chorus

Interlude: Fig. 3

D-------------------5-5----------------------------------
A--5b-5b-5b5b---5-5-----6-6-5b-5b-5b5b---5-5-3-3-6-6-----
F--------------------------------------------------------
C--------------------------------------------------------
G--------------------------------------------------------
D--------------------------------------------------------

Interlude Fig 3.1 with distortion

D
A------------------14)---------
F--0-2-4-6-8-10-12-------------
C------------------------------
G------------------------------
D------------------------------

Alternate Fig. 3 and 3.1; after which, do Fig 3.2 and 3.3

Interlude Fig 3.2 with distortion

D------------------------------------
A
F--------------------7-------7-------
C--------------------7-------7-------
G--5b-5b-------0b-0b-5-0b-0b-5-------
D--5b-5b-------0b-0b---0b-0b---------

Interlude Fig 3.3 with distortion

D
A----------------------repeat-------------------
F--------------7---7-----3x---------------------
C--------------7---7---before-------------------
G--5b-5)-----0-5-0-5------------5-3)---7-5------
D--5b-5)-----0---0--------------5-3)---5-3------

Back to Chorus

Song ends with Intro

MESSAGE:
Sorry this one took long. Busy pa kami para sa NSPC dito sa Lapu-Lapu.
You know where to e-mail me: [email protected]

UNTIL NEXT TIME!!!!!!!!!

;)

Log In to leave a comment

After registration we will return you to the same place
Comments
face-with-monocle
If you wait a bit, some comments may appear here...

Shhh...

Most Popular
You Might Like