Loading...
Slapshock logo

Countdown Slapshock

  • 0
  • Share
  • Transposing
    0
  • Font Size
Hey mga pre and2 na nmn ако, big fans ng Slap sноск or slap shi!t whatever?!
Eto yung 3rd version ng countdown sa project 11-41, Mathew a.к.a
RоСк3r_GuItArIsT,hehehe have fun!

TAB:MATHEW ALIBANGBANG a.к.a RоСк3r_GuItArIsT
SONG: COUNTDOWN
ALBUM:11-41
ARTIST:SLAP SHOCK!

TUNNING:DROP D
DADGBE

INTRO
|-------------------------------------------
|-------------------------------------------
|----12-----------3--6----------------------
|5-5--x--5-5-5-5--x--x----------------------
|3-3-10--3-3-3-3--1--4----------------------
|0-0-----0-0-0-0----------------------------

Verse
|----------------------------------------------------
|----------------------------------------------------
|--------5-5---12-12---6-6----------5-5--3-3-6-6-----
|-5-5-5----------------------5-5-5-------------------
|-3-3-3----------------------3-3-3-------------------
|-0-0-0----------------------0-0-0-------------------

Pre-chorus
|---------------------------------------------------------
|---------------------------------------------------------
|-----6-6b-----6-6b-----6-6b---5-5---12--12--6-6----------
|-5-5-x-x--5-5-x-x--5-5-x-x-------------------------------
|-3-3-4-4b-3-3-4-4b-3-3-4-4b------------------------------
|-0-0------0-0------0-0-----------------------------------

|---------------------------------------------------
|---------------------------------------------------
|-----6-6b-----6-6b-----6-6b---5-5---3-3--6-6-------
|-5-5-x-x--5-5-x-x--5-5-x-x-------------------------
|-3-3-4-4b-3-3-4-4b-3-3-4-4b------------------------
|-0-0------0-0------0-0-----------------------------

|-------------------------------------------
|-------------------------------------------
|3-3-3-3---6-6-6-6--------------------------
|x-x-x-x---x-x-x-x--------------------------
|1-1-1-1---4-4-4-4--------------------------
|-------------------------------------------

CHORUS
|--------------------------------------------
|--------------------------------------------
|----12-----------3--6-----------------------
|5-5--x--5-5-5-5--x--x-----------------------
|3-3-10--3-3-3-3--1--4-----------------------
|0-0-----0-0-0-0-----------------------------

(then verse)

BRIDGE
PART 1
|--------------------------------------------------------
|--------------------------------------------------------
|-5-5-5---5-5--12-12--6--6----5-5-5---5-5--3-3---6-6-----
|--------------------------------------------------------
|--------------------------------------------------------
|--------------------------------------------------------

GUITAR 2
|-3~-----------------------------------------
|-4~-----------------------------------------
|-5~-----------------------------------------
|--------------------------------------------
|--------------------------------------------
|--------------------------------------------

PART 2
|---------------------------------------------
|---------------------------------------------
|-5-6-8-9-11-12-13-17~------------------------
|-x-x-x-x-x---x--x--x-------------------------
|-3-4-6-7-9--10-11-15~------------------------
|---------------------------------------------

Then after the bridge do this
|---------------------------------------------------
|---------------------------------------------------
|-----6-6b-----6-6b-----6-6b---5-5---3-3--6-6-------
|-5-5-x-x--5-5-x-x--5-5-x-x-------------------------
|-3-3-4-4b-3-3-4-4b-3-3-4-4b------------------------
|-0-0------0-0------0-0-----------------------------

THEN CHORUS AND OVER AND OVER AGAIN!

Well mga pre sana magustuhan nyo yng bagong version ng countdown ng slap sноск
Musta nga pala кау leander m> and sa lahat ng slap sноск fans, puppnta nga pla d2
Sa fairview yung slap sноск sa april 27 6.00pm sa sm fairview hayaan nyo
Mакiкiраg slaman ако dun,correction are welcome (rоск[email protected])
Or [email protected] cge

TAB:MATHEW ALIBANGBANG a.к.a RоСк3r_GuItArIsT
SONG: COUNTDOWN
ALBUM:11-41
ARTIST:SLAP SHOCK!

Log In to leave a comment

After registration we will return you to the same place
Comments
face-with-monocle
If you wait a bit, some comments may appear here...

Shhh...

Versions

Most Popular
You Might Like